note: this is not the actual version. this is the way (i think) it sounds best when played with a single
guitar. feel free to make variations as you wish. if you have any comments, feel free to e-mail me at [email protected]
intro
E ---------------------------------------------------------------------|
B ---------------------------------------------------------------------|
G ---------------------------------------------------------------------|
D -----------------------------------6-6-6-6-6-6-6-6--6-6-6-6-6-6-6-6--|
A -7-7-7-7-7-7-7-7--6-6-6-6-6-6-6-6--7-7-7-7-7-7-7-7--7-7-7-7-7-7-7-7--|
E -5-5-5-5-5-5-5-5--7-7-7-7-7-7-7-7--7-7-7-7-7-7-7-7--7-7-7-7-7-7-7-7--|
-----------------------------------------------------------------------|
-----------------------------------------------------------------------|
-----------------------------------------------------------------------|
-----------------------------------6-6-6-6-6-6-6-6--6-6-6-6-6-6-6-6----|
-7-7-7-7-7-7-7-7--6-6-6-6-6-6-6-6--7-7-7-7-7-7-7-7--7-7-7-7-7-7-7-7----|
-5-5-5-5-5-5-5-5--7-7-7-7-7-7-7-7--7-7-7-7-7-7-7-7--7-7-7-7-7-7-7-7----|
-----------------------------------------------------------------------|
-----------------------------------------------------------------------|
-----------------------------------------------------------------------|
-----------------------------------------------------------------------|
-7-7-7-7-7-7-7-7--6-6-6-6-6-6-6-6--7-7-7-7-7-7-7-7--7-7-7-7-6-6-6-6----|
-5-5-5-5-5-5-5-5--7-7-7-7-7-7-7-7--9-9-9-9-9-9-9-9--7-7-7-7-7-7-7-7----|
-----------------------------------------------------------------------|
-----------------------------------------------------------------------|
-----------------------------------------------------------------------|
-----------------------------------6-6-6-6-6-6-6-6--6-6-6-6-6-6-6-6----|
-7-7-7-7-7-7-7-7--6-6-6-6-6-6-6-6--7-7-7-7-7-7-7-7--7-7-7-7-7-7-7-7----|
-5-5-5-5-5-5-5-5--7-7-7-7-7-7-7-7--7-7-7-7-7-7-7-7--7-7-7-7-7-7-7-7----|
for the first half of the first verse, just play through the intro. for the second half, use these
you will have to make up your own rythem.
E B A B E B A B
-0-0-0-0-2-2-2-2--0-0-0-0-2-2-2-2--0-0-0-0-2-2-2-2--0-0-0-0-2-2-2-2----|
-0-0-0-0-4-4-4-4--2-2-2-2-4-4-4-4--0-0-0-0-4-4-4-4--2-2-2-2-4-4-4-4----|
-1-1-1-1-4-4-4-4--2-2-2-2-4-4-4-4--1-1-1-1-4-4-4-4--2-2-2-2-4-4-4-4----|
-2-2-2-2-4-4-4-4--2-2-2-2-4-4-4-4--2-2-2-2-4-4-4-4--2-2-2-2-4-4-4-4----|
-2-2-2-2-2-2-2-2--0-0-0-0-2-2-2-2--2-2-2-2-2-2-2-2--0-0-0-0-2-2-2-2----|
-0-0-0-0-2-2-2-2--0-0-0-0-2-2-2-2--0-0-0-0-2-2-2-2--0-0-0-0-2-2-2-2----|
?she threw my...?
G#m C#m A B
-4-4-4-4-4-4-4-4--4-4-4-4-4-4-4-4--0-0-0-0-0-0-0-0--2-2-2-2-2-2-2-2----|
-4-4-4-4-4-4-4-4--5-5-5-5-5-5-5-5--2-2-2-2-2-2-2-2--4-4-4-4-4-4-4-4----|
-4-4-4-4-4-4-4-4--6-6-6-6-6-6-6-6--2-2-2-2-2-2-2-2--4-4-4-4-4-4-4-4----|
-6-6-6-6-6-6-6-6--6-6-6-6-6-6-6-6--2-2-2-2-2-2-2-2--4-4-4-4-4-4-4-4----|
-6-6-6-6-6-6-6-6--4-4-4-4-4-4-4-4--0-0-0-0-0-0-0-0--2-2-2-2-2-2-2-2----|
-4-4-4-4-4-4-4-4--4-4-4-4-4-4-4-4--0-0-0-0-0-0-0-0--2-2-2-2-2-2-2-2----|
?dad said im sorry...?
chorus
A / / / / / / / B / / / / / / / E / / / / / / / E / / / / / / /
?so tell me, have...?
A / / / / / / / B / / / / / / / G#m / / / / / / / C#m / / / E / / /
?it wasnt fancy, it wasnt...?
bridge
-----------------------------------------------------------------------|
-----------------------------------------------------------------------|
-----------------------------------------------------------------------|
-----------------------------------------------------------------------|
-6-6-6-6-6-6-6-6--6-6-6-6-6-6-6-6--7-7-7-7-7-7-7-7--7-7-7-7-7-7-7-7----|
-4-4-4-4-4-4-4-4--4-4-4-4-4-4-4-4--7-7-7-7-7-7-7-7--7-7-7-7-7-7-7-7----|
-----------------------------------------------------------------------|
-----------------------------------------------------------------------|
-----------------------------------------------------------------------|
-----------------------------------------------------------------------|
-7-7-7-7-7-7-7-7--7-7-7-7-7-7-7-7--9-9-9-9-9-9-9-9--9-9-9-9-9-9-9-9----|
-9-9-9-9-9-9-9-9--9-9-9-9-9-9-9-9--7-7-7-7-7-7-7-7--7-7-7-7-7-7-7-7----|
verse 2: play on the low E and A strings.
-7-7-7-7-7-7-7-7--7-7-7-7-7-7-7-7--7-7-7-7-7-7-7-7--7-7-7-7-7-7-7-7----|
-7-7-7-7-7-7-7-7--7-7-7-7-7-7-7-7--9-9-9-9-9-9-9-9--9-9-9-9-9-9-9-9----|
?driving down the...?
-9-9-9-9-9-9-9-9--9-9-9-9-9-9-9-9--7-7-7-7-7-7-7-7--9-9-9-9-9-9-11-9---|
-7-7-7-7-7-7-7-7--7-7-7-7-7-7-7-7--9-9-9-9-9-9-9-9--7-7-7-7-7-7--7--7--|
?where the highway...?




Ваше мнение



Капча