Song: Banner Year
Artist: Five Iron Frenzy
Album: Our Newest Album Ever!
Tabbed by: Ryan Willet
I really like this song. I hope you all enjoy it
>: Play more than once

Intro:
G: -----------------
D: -----------------
A: --55-----33------
E: ------5>----5>---x2

Verse:
G: ----------------------------------------
D: ----4----4--7>---7>------2---2--5>--5>--
A: --5>--5>------7----7--3>--3>------5---5-
E: ----------------------------------------

Pre-Chorus:
G: ---------------------------------
D: -----------------------4-5-7-----
A: --0>-3>----5>-0>-3>-5------------
E: ---------3>----------------------

Chorus:
G: ---------------------------------------------------------
D: ---------------------------------------------------------
A: ---5--5--5---5--5--5--5---5--3--3--3--3---3--3--3--3---3-
E: --3--3--3--33--2--2--2--22--1--1--1--1--11--0--0--0-00---

Before verse 2:
G: ----------------
D: ----------------
A: ----1>-3>---1>--
E: --5>-----5>-----

Trombone solo:
X2 X2
G: -----------------------------------------
D: -------------------------2h3-5-3p2---2---
A: ----4h5-7-5p4---4------3-----------3---3-
E: --5-----------5---5----------------------

After Horn solo:
G: -------------------------
D: -------------------------
A: ----3>---3>-0>-5>-3>-5>--
E: --3>---3>----------------




Ваше мнение



Капча