Song: Arnold & Willis & Mr. Drummond
Band: FIF
Tabbed out by: Josiah Ziegler

INTRO:
G----------------------
D--------------------2-
A------5----------5----
E-5-2----2--5-2-------

VERSE:
A---4-7-4----4-7-4----2-5-2----2-5-2
E-5--------5---------3---------3-------

BRIDGE:
A-2--------2------
E---3-5-2---3-5-6

CHORUS:
A-7---5-9
E---9----

BASS SOLO:
A-----4-5-7-7-5-4----------------
E-5-5--------------7-7-5-4-2-2-4




Ваше мнение



Капча