Song: All that Is Good
Artist: Five Iron Frenzy
Album: Quantity is Job 1
Tabbed by: Ryan Willet

All the Songs from this ep are really hard, considering that they threw them
together in about a month!

Intro:
G: ------------- ------- -------------------
D: ------------- ------- -------------------
A: --7>--4>--2>- ----7-- --7>--4>--2>--0-2--
E: ------------- -00----X4 -------------------

Verse:
G: -------4-2/1------4-2-1-----------------------
D: --22-2-------22-2------------1-2------1-2h4---
A: ------------------------22-2-----22-2---------
E: ----------------------------------------------

G: -------------------------------------------
D: ----------2-4------4-2/1--------2--------2-
A: ------44-4----22-2-------00-0-4---00-0-4---
E: -------------------------------------------

G: -------2-6------2-6---------------
D: --44-4-----44-4-----------4-2/1---
A: ---------------------22-2---------
E: ---------------------------------- X2

Chorus
G: -----------------------------
D: --11>--9>--6>----7>--4>--9>--
A: --------------44-------------
E: ----------------------------- X2

Bridge [1] [2] [3]
G: ----9-------- ----6------- ---------------------------------
D: ---9-9-7/6-9- ---7-77-6-4- ----11-------------9-------------
A: --7---------- --7--------- --11--11-11-9-8---9-99-7-6-------
E: -------------X3 ------------ -9---------------7---------------




Ваше мнение



Капча