Author/Artist: Firehouse
Title: When I Look Into Your Eyes
Album: Hold Your Fire
Transcribed by: ben_jovi2001
Email: [email protected]

THE best power ballad on the face of the earth!!!
TUNE DOWN ONE-HALF STEP
enjoy and God bless :)

----------------------------------------------------------------------------|-
----------------------------------------------------------------------------|-
-----------------0-2-5-4---------0-2-5-4--0-2-3-------0-2-5-4---------0-2-5-|-
----------------------------------------------------------------------------|-
----------------------------------------------------------------------------|-
-------------3--------------0-3--------------------3-------------0-3--------|-
intro

-|-2----2----2-----2----0-----0-----0------0-----0----0----2--------2---------
-|-2---------3----------1------------------0-----1---------3------------------
-|-0---------2----------0------------------0-----2---------2------------------
-|-0--0---0--4--4----4--2--2-----2----2----2--2--2--2---2--4---4---------2----
-|-2---------2----------3------------------2-----0---------2------------------
-|-3---------2-----------------------------0---------------2------------------
I see forever when I look in your eyes You're all I ever wanted I always

-0--------0-----2-----2---------------------------------|---------------------
-1--------------3---------------------------------------|---------------------
-0--------------2---------------------------------------|---------------------
-2----2------2--0--0----0-------------------------------|---------------------
-3------------------------------------------------------|---------------------
--------------------------------------------------------|---------------------
want you to be mine.... repeat

-0--0-----------2---2------------0--0-----------2--2----------|---------------
-1------1-------3-------3--------1------1-------3------3------|---------------
-2-----------2--2-----------2----0----------0---2----------2--|---------------
-2--------------4----------------2--------------0-------------|---------------
-0--------------2----------------3----------------------------|---------------
----------------2---------------------------------------------|---------------
So here we are face to face and heart to heart ... repeat 2x

--0--0--0--0--0--0--0--0----------2--2--2--2--2--2--2--2----------------------
--1--1--1--1--1--1--1--1----------3--3--3--3--3--3--3--3----------------------
--0--0--0--0--0--0--0--0----------2--2--2--2--2--2--2--2----------------------
--2--2--2--2--2--2--2--2----------0--0--0--0--0--0--0--0----------------------
--3--3--3--3--3--3--3--3------------------------------------------------------
------------------------------------------------------------------------------
'Cause I see my whole world I see only you....

--------3-----2---------3----------3---------------2--------------3-----------
--------3-----3---------5----------3---------------3--------------5-----------
--------4-----2---------5----------4---------------2--------------5-----------
--------5-----4---------5----------5---------------4--------------5-----------
--------5-----2---------3----------5---------------2--------------3-----------
--------3-----2---------3----------3---------------2--------------3-----------
When I look into your eyes, I can see how much I love you and it makes me

-5---------------3-----2--------3---------------------------------------------
-7---------------3-----3--------5---------------------------------------------
-7---------------4-----2--------5---------------------------------------------
-7---------------5-----4--------5---------------------------------------------
-5---------------5-----2--------3---/3--2---0---------------------------------
-5---------------3-----2--------3---------------------------------------------
realize, when I look into your eyes, I see all my dreams come true when I

--------------------------|---------------------------------------------------
--------------------------|---------------------------------------------------
--------------------------|---------------------------------------------------
--------------------------|---------------------------------------------------
-3-----5------------------|---------------------------------------------------
--------------------------|---------------------------------------------------
look into your eyes.....

------------------------------------------------------------------------------
-------2-5-4-------0-2-5-4--0-2-4------0-2-5-4------0-2-5-4-------------------
------------------------------------------------------------------------------
------------------------------------------------------------------------------
------------------------------------------------------------------------------
----3---------0-3-------------------3----------0-3----------------------------
repeat verse, chorus

-5-------4-------5----|--5---4---5---7-----5---4---5------7-----7----|--------
-5-------5-------7----|--5---5---7---9-----5---5---7------7-----9----|--------
-6-------4-------7----|--6---4---7---9-----6---4---7------7-----9----|--------
-7-------6-------7----|--7---6---7---9-----7---6---7------9-----9----|--------
-7-------4-------5----|--7---4---5---7-----7---4---5------9-----7----|--------
-5-------4-------5----|--5---4---5---7-----5---4---5------7-----7----|--------
eeeyeeeeeesss... chords behind solo

-------------------------------------------------17-------17-------17---------
-------15-14-15-17---15-14-15-17-15-14-15--14-15----14-15----14-15----14-15---
-14-16------------------------------------------------------------------------
------------------------------------------------------------------------------
------------------------------------------------------------------------------
------------------------------------------------------------------------------
solo

-17-------17-17/19-19/21---21b-19-21b-17-21b---------17-19-22b-20-19-20-------
----14-15------------------------------------17---17--------------------------
------------------------------------------------------------------------------
------------------------------------------------------------------------------
------------------------------------------------------------------------------
------------------------------------------------------------------------------


-22-20-19----20-19------------------------------------------------|-----------
----------22-------22-20---22-20----20----------------------------|-----------
---------------------------------22----22-21-22-21-19-21-19-------|-----------
------------------------------------------------------------22-21-|-----------
------------------------------------------------------------------|-----------
------------------------------------------------------------------|-----------


--------7-----6--------7-----------7--------------6---------------7-----------
--------7-----7--------9-----------7--------------7---------------9-----------
--------8-----6--------9-----------8--------------6---------------9-----------
--------9-----8--------9-----------9--------------8---------------9-----------
--------9-----6--------7-----------9--------------6---------------7-----------
--------7-----6--------7-----------7--------------6---------------7-----------
When I look into your eyes, I can see how much I love you and it makes me

-----9-----------7-----6--------7-------------7-----------6-------------------
-----11----------7-----7--------9-------------7-----------7-------------------
-----11----------8-----6--------9-------------8-----------6-------------------
-----11----------9-----8--------9-------------9-----------8-------------------
-----9-----------9-----6--------7-------------9-----------6-------------------
-----9-----------7-----6--------7-------------7-----------6-------------------
realize, when I look into your eyes, we will always be together and our

--7--------------9-----------7-----6--------7---------------------------------
--9--------------11----------7-----7--------9---------------------------------
--9--------------11----------8-----6--------9---------------------------------
--9--------------11----------9-----8--------9---------------------------------
--7--------------9-----------9-----6--------7---/7----------------------------
--7--------------9-----------7-----6--------7-------11--9---------------------
love will never die, when I look into your eyes, I see all my dreams come

------------------------------------------------------------------------------
---------------------------------0-2-5-4-------0-2-5-4------------------------
------------------------------------------------------------------------------
------------------------------------------------------------------------------
--------------7-----9---------2-------------2---------------------------------
------------------------------------------2-----------------------------------
true, when I look into your eyes

-------------------------------7--------7-------------------------------------
---------------------------------7---7--7-------------------------------------
-------------------------8---------8----8-------------------------------------
---------------------------9------------9-------------------------------------
--------7-----9--------------9----------9-------------------------------------
-----------------------7----------------7-------------------------------------
when I look into your eyes




Ваше мнение



Капча