Firehouse
Album : Good Acoustic Album
Song : In Your Perfect World
Tabbed by Opiq
e-mail : [email protected]
[email protected]
Tune : D A F C G D
Intro : play Riff 1 twice
Riff 1
Am F G
d |----------------0------0h1------------0------3----------------
A |-0h1--3p1---1-----1----0h1--3p1---1-----1----3--3p1---1---0---
F |-0h2------2---2-----2--0h2------2---2-----2--0------2---2---0-
C |-0h2-------------------0h3------------------------------------
G |-0------------------------------------------------------------
D |--------------------------------------------------------------
Am
----------------|
-0h1--3p1---1---|
-0h2------2-----|
-0h2------------|
-0--------------|
----------------|
It's not 100 % correct, but it sound close enough
and on the record I think they use 12 string guitar
(Don't forget to use this tune : D A F C G D)

Verse 1(strum)
Am
Seems I just can't do enough
F
I could never win your love
C
Why should I try
G
When you never share your feelings?
Am
How could I be so naive?
F
Is it so hard to believe
C G
That you excel in emotional concealing?
Bridge
Dm
No matter what I do
Am
I never measure up for you
F Am
But you just keep that smile on your face
Dm
No matter how much I try
Am
You're never really satisfied
F G
Until you run away and hide
Chorus (Play riff 1)
Am
In your perfect world
F
Where there's no one to blame
G
No one can hurt your feelings
Am
And you don't feel no pain
Am
Everybody loves you
F
And nobody gets burned
G
As long as you are living
Am
In your perfect world
Verse 2(strum)
Am
It seems like everyone gets screened
F
On your answering machine
C
Can't take the call
G
And let down your defenses
Am
You can't let anybody see
F
Your real personality
C G
Is it pride, or just your false pretenses?
Bridge
Dm
Maybe a part of you has died
Am
Because you keep it all inside
F Am
But still you wear that smile on your face
Dm
It seems no matter what I do
Am
I just can't get through to you
F G
But I always know where to find you
Chorus
Am
In your perfect world
F
Where nothing can go wrong
G
You're always in control
Am
And we all get annoy
Am
And everything is beautiful
F
No need for concern
G
As long as you are living
Am
In your perfect world
-Am Progresion with electric solo-
(I'm not going to tab it, so try to figure it up by your self)
Accoustic Solo
(Am F G Am)
d |--------------------------8--8--8/7--7-7/5--5-5----------|
A |-------------------------10-10-10/8--8-8/6--6-6---6/8~---|
F |---------------------------------------------------------|
C |--7-9/10--7~-75---5-7~----------------------------------|
G |-----------------7---------------------------------------|
D |---------------------------------------------------------|
d |--5-7-8-8/10-8-10-10/12-10-------------------------------|
A |----------------------------13-12-12/13-10-12/13-10~-----|
F |---------------------------------------------------------|
C |---------------------------------------------------------|
G |---------------------------------------------------------|
D |---------------------------------------------------------|
d |-------------------------------------8-------10-------12-|
A |-10-12/13-10-108---8-10-10-10-10-10---10-10----10-10----|
F |------------------9--------------------------------------|
C |---------------------------------------------------------|
G |---------------------------------------------------------|
D |---------------------------------------------------------|
d |----10----8-10--15-15-15-15--20-20-20--19--15-15/17-17-17|
A |-10----10------------------------------------------------|
F |---------------------------------------------------------|
C |---------------------------------------------------------|
G |---------------------------------------------------------|
D |---------------------------------------------------------|
d |-17-17-17-17-17-17-17-(Play it till you drop)------------|
A |---------------------------------------------------------|
F |---------------------------------------------------------|
C |---------------------------------------------------------|
G |---------------------------------------------------------|
D |---------------------------------------------------------|
Bridge
Dm
Maybe a part of you has died
Am
Because you keep it all inside
F Am
But still you wear that smile on your face
Dm
It seems no matter what I do
Am
I just can't get through to you
F G
But I always know where to find you
Chorus
Am
In your perfect world
F
Where there's no one to blame
G
No one can hurt your feelings
Am
And you don't feel no pain
Am
Everybody loves you
F
And nobody gets burned
G
As long as you are living
Am
In your perfect world
Am
In your perfect world
F
Where nothing can go wrong
G
You're always in control
Am
And we all get annoy
Am
And everything is beautiful
F
No need for concern
G
As long as you are living
Am
In your perfect world
Thanks To Norman For The First Tab




Ваше мнение



Капча