#-----------------------------------------------------------------------------#
#-- File created with Instab - http://www.pconline.com/~smcarey/instab.html --#
#-----------------------------------------------------------------------------#
Author/Artist: Firehouse
Title: I Live My Life for You (solo)
Album: 3
Transcribed by: ben_jovi2001
Email: [email protected]
Here's the solo to I Live My Life for You
TUNE DOWN A HALF STEP!!!
enjoy, and God bless! :)
---------------------------------5-----------------5-5-7b-5-------------------|
-----5-7b-5-----------5-7b-7-5-----------5-8-8-7-8-------------------17-17----|
---7--------7-7-----7----------7-------7--------------------------19----------|
-7----------------7------------------7-------------------------19-------------|
------------------------------------------------------------------------------|
------------------------------------------------------------------------------|
------------------------------------------------------------------------------|
----------20-------19-------17-------19-------------20-------19---------------|
----19-------19-------19-------19-------19----19-------19-------19------------|
-19----19-------19-------19-------19-------19----19-------19-------19---------|
------------------------------------------------------------------------------|
------------------------------------------------------------------------------|
------------------------------------------------------------19b-19b-17-17-17--|
-17-------19-------------20-------19-------17----20------17-------------------|
----19-------19----19-------19-------19-------19----19------------------------|
-------19-------19----19-------19-------19-------------19---------------------|
------------------------------------------------------------------------------|
------------------------------------------------------------------------------|
-17-21b-17--------------------------------------------------------------------|
-----------20-19-19-19h20p19-17-----------------------------------------------|
--------------------------------19--------------------------------------------|
------------------------------------------------------------------------------|
------------------------------------------------------------------------------|
------------------------------------------------------------------------------|




Ваше мнение



Капча