Standard E Tuning

riff A:
|--------------------------------------------------------|
|--------------------------------------------------------|
|--------------------------------------------------------|
|--------------------------------------------------------|
|--------------------------------------------------------|
|-3-4p3-1h3-3---3-4p3-1h3-3---3-4p3-1h3-3---3-4p3-1h3-3/6|
(4x)
riff B:
|--------------------------------------------------------|
|--------------------------------------------------------|
|--------------------------------------------------------|
|--------------------------------------------------------|
|-5-6p1-3h5-5---5-6p5-3h5-5---5-6p5-3h5-5---5-6p5-3h5-5/8|
|-3-4p3-1h3-3---3-4p3-1h3-3---3-4p3-1h3-3---3-4p3-1h3-3/6|
(4x)
riff C:
|--------------------------------------------------------|
|--------------------------------------------------------|
|-------------------7------------------7-----------------|
|-7h8p7h---7h8h10p----7h8p7h---7h8h10p-------------------|
|-------10------------------10---------------------------|
|--------------------------------------------------------|
(3x)

|--------------------------------------------------------|
|--------------------------------------------------------|
|-------------------7------------------------------------|
|-7h8p7h---7h8h10p----7h8p7h---7-------------------------|
|-------10------------------10---------------------------|
|--------------------------------------------------------|
(1x)
repeat riff C again.

riff B:
|--------------------------------------------------------|
|--------------------------------------------------------|
|--------------------------------------------------------|
|--------------------------------------------------------|
|-5-6p1-3h5-5---5-6p5-3h5-5---5-6p5-3h5-5---5-6p5-3h5-5/8|
|-3-4p3-1h3-3---3-4p3-1h3-3---3-4p3-1h3-3---3-4p3-1h3-3/6|
(4x)
riff C:
|--------------------------------------------------------|
|--------------------------------------------------------|
|-------------------7-------------------7----------------|
|-7h8p7h---7h8h10p----7h8p7h---7h8h10p-------------------|
|-------10------------------10---------------------------|
|--------------------------------------------------------|
(3x)

|--------------------------------------------------------|
|--------------------------------------------------------|
|-------------------7------------------------------------|
|-7h8p7h---7h8h10p----7h8p7h---7-------------------------|
|-------10------------------10---------------------------|
|--------------------------------------------------------|
(1x)
repeat riff C again.

riff D:
|--------------------------------------------------------|
|--------------------------------------------------------|
|--------------------------------------------------------|
|--------------------------------------------------------|
|-5-6-5-3/5---5-6-5-3/6---5-6-5-3/5---5-6-5-3/6----------|
|-3-4-3-1/3---3-4-3-1/4---3-4-3-1/3---3-4-3-1/3----------|
. . . . . . . . . . . .

riff E:
|--------------------------------------------------------|
|--------------------------------------------------------|
|--------------------------------------------------------|
|--------------------------------------------------------|
|-5-6-5-3/5---5-6-5-3/6---5-6-5-3/5---5-6-5-3/6----------|
|-3-4-3-1/3---3-4-3-1/4---3-4-3-1/3---3-4-3-1/3----------|
(2x)
riff B:
|--------------------------------------------------------|
|--------------------------------------------------------|
|--------------------------------------------------------|
|--------------------------------------------------------|
|-5-6p1-3h5-5---5-6p5-3h5-5---5-6p5-3h5-5---5-6p5-3h5-5/8|
|-3-4p3-1h3-3---3-4p3-1h3-3---3-4p3-1h3-3---3-4p3-1h3-3/6|
(8x)
riff F: riff G: (4x)

|---------|-----------------------------------------------|
|---------|-----------------------------------------------|
|---------|-----------------------------------------------|
|---------|-----------------------------------------------|
|-3-------|-3---3----5/65--------------------------------|
|-1-------|-1---1----3/43--------------------------------|

riff H
|-----------------------------1--------------------------|
|---1---1---1---1---2---2---2---2------------------------|
|-1---1---1---1---1---1---1------------------------------|
|--------------------------------------------------------|
|--------------------------------------------------------|
|--------------------------------------------------------|
(16x)
riff I:
|--------------------------------------------------------|
|--------------------------------------------------------|
|--------------------------------------------------------|
|--------------------------------------------------------|
|-333-333-444-4434---------------------------------------|
|-111-111-111-1111---------------------------------------|
(4x)
riff J:
|--------------------------------------------------------|
|--------------------------------------------------------|
|--------------------------------------------------------|
|----------------------------------[ending]--------------|
|-55--5h63--5h6p5/8-----------------5-5-----------------|
|-33--3h41--3h4p3/6----(6x)---------3-3-----------------|




Ваше мнение



Капча