Finntroll - Fцdцsagan
Album: Jatkens Tid
Artist: Patrick Scheffers
any questions , comments/suggestions: [email protected]
riff 1
E------|
B------|
G------|
D----2-| 'Let ring'
A--x-2-|
E--x-0-|
riff 1b
E-------|
B-------|
G-------|
D-x---3-|
A-x---3-|
E-x-0-1-|
riff 2
E------------------------------------------------------|
B------------------------------------------------------|
G------------------------------------------------------|
D----------------------------------------------2-x---3-|
A-2--------------2--------------2--------------2-x---3-|
E-0-0-3-0-3-3-5--0-0-3-0-3-3-5--0-0-3-0-3-5-1--0-x-0-1-|
Verse:
E------------------------------------------------------------------|
B------------------------------------------------------------------|
G------------------------------------------------------------------|
D---2------------------2-----------------2-----------------2-x---3-|
A---2------------------2-----------------2-----------------2-x---3-|
E-x-0--0-3-0-3-3-5--x--0--0-3-0-3-3-5--x-0--0-3-0-3-5-1--x-0-x-0-1-|
Riff 3 (PLayed in the middle of the song somewhere before interlude)
(let all chords ring)
E--------------|
B--------------|
G-4-----2------|
D-4--5--2--4---|
A-2--5--0--4---|
E----3-----2---|
Pre-Interlude:
E----(3)-----------|
B-----t------------|
G-4-4-i-----4------|
D-4-4-m-----4--5-4-|
A-2-2-e-----2--5-4-|
E-----s--------3-2-|
Acoustic Bit:

Strum these Chords
E-0---0---2------0-|
B-0---1---0------0-|
G-0---0---2------0-|
D-2---2---1------2-|
A-2---3---2------2-|
E-0-------0--3-2-0-|
Acoustic bit played along with the chords:
E--------------------------------------|
B-3h5--3-3h5---------------------------|
G------------4---2-4-5--5-4h5-4--------|
D--------------------------------------|
A--------------------------------------|
E--------------------------------3-2-0-|

E-----------------------------|
B-----------------------------|
G-----------------------------|
D-5-4-2-----------------------|
A-5-4-2-----------------------|
E-3-2-0--0-0-0-0---0-0-0-0-0--|
|_________|
5
Outro:
E---------------------------------------------------------------------------------------|
B---------------------------------------------------------------------------------------|
G-------------------------------------------------------------------------------------3-|
D-2----------------------2----------------------2---------------------2-------------2-3-|
E-0-0-0-0-0-0-3-0-3-3-5--0-0-0-0-0-0-3-0-3-3-5--0-0-0-0-0-0-3-0-3-5-1-0-0-0-0-0-0-x-0-1-|
pm........ pm........ pm........ pm........
E------------------------|
B------------------------|
G------------------------|
D-----3------3------3--2-|
A---2-3----2-3----2-3--2-|
E-x-0-1--x-0-1--x-0-1--0-|




Ваше мнение



Капча