T1: Byron Coombes, [email protected], Finger Eleven, Tip
S1: =====================
Song: Tip
Artist: Finger Eleven
Tab by: Byron Coombes([email protected])
=====================
Key
===
/ = slide
. = one beat
+ = wah wah (toe down)
O = wah wah (toe up)
legato = each note runs into the other
stacato = short quick notes


[A] 1st time (11x)
2nd time (7x)
. . . . . . . .
Eb---------------------------------|---------------------------------|
Bb---------------------------------|---------------------------------|
Gb---------------------------------|---------------------------------|
Db-0---3-3-3---3-3/9-9-9-------9---|-0---3-3-3---3-3/9-9-9---9-9-9-9-|
Ab-0---3-3-3---3-3/9-9-9-------9---|-0---3-3-3---3-3/9-9-9---9-9-9-9-|
Db-0---3-3-3---3-3/9-9-9-------9---|-0---3-3-3---3-3/9-9-9---9-9-9-9-|
. . . . . . . .
Eb---------------------------------|-------------------------------------|
Bb---------------------------------|-------------------------------------|
Gb---------------------------------|-------------------------------------|
Db-7-----7-----7-----7-----8-8-8-8-|-7-----7-----7-----7-----10-10-10-12-|
Ab-------------------------8-8-8-8-|-------------------------10-10-10-12-|
Db---7-----7-----7-----7---8-8-8-8-|---7-----7-----7-----7---10-10-10-12-|
stacato............/ stacato............/
. . . . (2x) . . . .
Eb---------------------------------|-------------------------------------|---------------|
Bb---------------------------------|-------------------------------------|
Gb---------------------------------|-------------------------------------|
Db-0-0-------------0-0-------------|---7-----7-----7-----7-----10-10-10-10-|
Ab-0-0-6-5/8---6-5-0-0-6-5/8---6-5-|-------------------------10-10-10-10-|
Db-0-0-------------0-0-------------|---7-----7-----7-----7---10-10-10-10-|---------------|
+ O + O stacato............/
GO BACK TO BLOCK [A]
. . . .
Eb ----------------------------------|
Bb ----------------------------------|
Gb ----------------------------------|
Db -5-5-5-5-5-5-5-5-5-5-5-5-5-7-7-10-|
Ab -5-5-5-5-5-5-5-5-5-5-5-5-5-7-7-10-|
Db -5-5-5-5-5-5-5-5-5-5-5-5-5-7-7-10-|
palm muted.....gradually release
. . . . . . . .
(5x)
E---------------------------------|---------------------------------|
Bb---------------------------------|---------------------------------|
Gb---------------------------------|---------------------------------|
Db-0----0----0-8-----8---8-8---8-8-|-1----1----1-7-----7-7---7---7-7-|
Ab-0----0----0-8-----8---8-8---8-8-|-1----1----1-7-----7-7---7---7-7-|
Db-0----0----0-8-----8---8-8---8-8-|-1----1----1-7-----7-7---7---7-7-|
legato...
. . . . . . . .
. . . .
Eb---------------------------------|---------------------------------|-------------------------------------|
Bb---------------------=-----------|---------------------------------|-------------------------------------|
Gb---------------------------------|---------------------------------|-------------------------------------|
Db-0----0----0-8-----8---8-8---8-8-|-1-1---1-1---7-7---7-7---8-7-8-7-|-7-7---7-7---7-7---7-7---10-10-10-12-|
Ab-0----0----0-8-----8---8-8---8-8-|-1-1---1-1---7-7---7-7---8-7-8-7-|-7-7---7-7---7-7---7-7---10-10-10-12-|
Db-0----0----0-8-----8---8-8---8-8-|-1-1---1-1---7-7---7-7---8-7-8-7-|-7-7---7-7---7-7---7-7---10-10-10-12-|
stacato............/
stacato............/
. . . . (2x) . . . .
Eb---------------------------------|-------------------------------------|---------------|
Bb---------------------------------|-------------------------------------|
Gb---------------------------------|-------------------------------------|
Db-0-0-------------0-0-------------|-7-----7-----7-----7-----10-10-10-10-|
Ab-0-0-6-5/8---6-5-0-0-6-5/8---6-5-|-------------------------10-10-10-10-|
Db-0-0-------------0-0-------------|---7-----7-----7-----7---10-10-10-10-|---------------|
+ O + O stacato............/
. . . . (3x)
Eb ---------------------------------|
Bb ---------------------------------|
Gb ---------------------------------|
Db -0---3-3-3---3-3/9-9-9-------9---|
Ab -0---3-3-3---3-3/9-9-9-------9---|
Db -0---3-3-3---3-3/9-9-9-------9---|
. . . . . . . .
(4x)
Eb---------------------------------|---------------------------------|
Bb---------------------------------|---------------------------------|
Gb---------------------------------|---------------------------------|
Db-0---3-3-3---3-3/9-9-9-------0---|-----3-3-3---3-3/9-9-9-------9---|
Ab-0---3-3-3---3-3/9-9-9-------0---|-----3-3-3---3-3/9-9-9-------9---|
Db-0---3-3-3---3-3/9-9-9-------0---|-----3-3-3---3-3/9-9-9-------9---|
. . . . . . . .
Eb---------------------------------|---------------------------------|
Bb---------------------------------|---------------------------------|
Gb---------------------------------|---------------------------------|
Db-0---3-3-3---3-3/9-9-9-------0---|-----3-3-3---3-3/9-9-9-----------|
Ab-0---3-3-3---3-3/9-9-9-------0---|-----3-3-3---3-3/9-9-9-----------|
Db-0---3-3-3---3-3/9-9-9-------0---|-----3-3-3---3-3/9-9-9-----------|




Ваше мнение



Капча