#----------------------------------PLEASE NOTE---------------------------------#
#This file is the author's own work and represents their interpretation of the-#
#song. You may only use this file for private study, scholarship, or research.-#
#------------------------------------------------------------------------------#
FINGER ELEVEN
THOUSAND MILE WISH
from their new self-titled album
Tabbed by DAVEMYSTER
Drop D Tuning
INTRO
(Gtr.1)
E-------------------0----
B-------------------0----
G----6----6----4----4----
D----7----6----4----2---- X 2
A----4----4----2----2----
D----4----4----2----2----
VERSE
(Gtr.1)
E-------------------0----
B-------------------0----
G----6----6----4----4----
D----7----6----4----2---- X 4
A----4----4----2----2----
D----4----4----2----2----
PRE-CHORUS
(Gtr.1) END ON THIS CHORD
E---------0-------------- -----------------
B---------0-------------- -----------------
G----7----9-------------- ----6------------
D----7----9-------------- X 3 ----7------------
A----5----7-------------- ----4------------
D----0------------------- ----4------------
VERSE
(Gtr.1)
E-------------------0----
B-------------------0----
G----6----6----4----4----
D----7----6----4----2---- X 4
A----4----4----2----2----
D----4----4----2----2----
VERSE
(Gtr.2) _
E--------------------- -------------------- |
B-------------9------- ------------9------- |
G--------11----11--11- -------11----11--11- |
D------11--11----11--- X 4 -----9----9----9---- X 4 |
A----9---------------- -------------------- |
D--------------------- ---9---------------- |
|- X 2
E--------------------- -------------------- |
B-------------9------- ------------9------- |
G--------11----11--11- -------11----11--11- |
D------11--11----11--- X 4 -----11--11----11--- X 4 |
A----9---------------- ---7---------------- |
D--------------------- -------------------- _|
PRE-CHORUS
(Gtr.1)
E---------0--------------
B---------0--------------
G----7----9--------------
D----7----9-------------- X 4
A----5----7--------------
D----0-------------------
PRE-CHORUS
(Gtr.2)
E------------------------
B----14---12-------------
G------------------------
D------------------------ X 4
A------------------------
D------------------------
CHORUS
(Gtr.1)
E------------------------
B------------------------
G-----6-----7------------
D-----7-----7------------ X 4
A-----4-----5------------
D-----4-----5------------
CHORUS
(Gtr.2)
E------------------------
B-----14----15-----------
G-----14----14-----------
D-----11----12----------- X 4
A------------------------
D------------------------
BRIDGE
(Gtr.1)
E-----------0------------
B-----------0------------
G-----6-----4------------
D-----7-----2------------
A-----4-----2------------
D-----4-----2------------
then
BRIDGE
(Gtr.2)
E--------------------- --------------------
B-------------9------- ------------9-------
G--------11----11--11- -------11----11--11-
D------11--11----11--- X 4 -----11--11----11--- X 4
A----9---------------- ---11---------------
D--------------------- --------------------
VERSE (Gtr.1) X 2
VERSE (Gtr.2) X 1
PRE-CHORUS (Gtr.1 & 2) X 4
CHORUS (Gtr.1) X 12
CHORUS
(Gtr.2)
E------------------------
B------14----------------
G------14----------------
D------11---------------- X 12
A------------------------
D------------------------
Gtr.1 END ON THIS CHORD
E------------------------
B------------------------
G------6-----------------
D------7-----------------
A------4-----------------
D------4-----------------
Gtr.2 ENDS ON
E------------------------
B------------------------
G------15----------------
D------11----------------
A------------------------
D------------------------





Ваше мнение



Капча