Thin Spirits
Tabbed By: Nick Halm & Chris Heron (www.weakenedhands.com)
Tuning: Eb Ab Db Gb Bb Eb
|7| = Artificial Harmonics
_ = Pull-Off
^ = Bend String Up
Eb|-----------------------|----------|----------|
Bb|----------------|12|---|----------|----------|
Gb|---------|12|----------|---2---1--|--2-------|
Db|---|7|-----------------|---3---2--|--3---9---|
Ab|-----------------------|---3---2--|--3---9---|
Eb|-----------------------|---1------|--1---7---|
X6
|-------------------|----------------------|
|-------------------|----------------------|
|---------------3---|---2---4---5---7--9---|
|---5---2---3---3---|---2---4---5---7--9---|
|---5---2---3---1---|---0---2---3---5--7---|
|---7---0---1-------|----------------------|
X3
|----------------|12|---|----------|----------|
|---------|12|----------|----------|----------|
|---|7|-----------------|---2---1--|--2-------|
|-----------------------|---3---2--|--3---9---|
|-----------------------|---3---2--|--3---9---|
|-----------------------|---1------|--1---7---|
X3
|-------------------|----------------------|
|-------------------|----------------------|
|---------------3---|---2---4---5---7--9---|
|---5---2---3---3---|---2---4---5---7--9---|
|---5---2---3---1---|---0---2---3---5--7---|
|---7---0---1-------|----------------------|
X3 X2
Guitar 1 Guitar 2
|---------| |----3-3-3-3-3-3^---|
|---------| |---5-5-5-5-5-5-----|
|---4_2---| |-------------------|
|---------| |-------------------|
|---------| |-------------------|
|---------| |-------------------|
X12
|-------------------|----------------------|
|-------------------|----------------------|
|---------------3---|---2---4---5---7--9---|
|---5---2---3---3---|---2---4---5---7--9---|
|---5---2---3---1---|---0---2---3---5--7---|
|---7---0---1-------|----------------------|
X3
|-------------------|----------------------|
|-------------------|----------------------|
|---------------3---|---2---4---5---7--9---|
|---5---2---3---3---|---2---4---5---7--9---|
|---5---2---3---1---|---0---2---3---5--7---|
|---7---0---1-------|----------------------|
X3 X4




Ваше мнение



Капча