Finger Eleven
Swallowtail
Adam [email protected]

Ok well this song is fairly easy except for a few parts but overall
it's pretty good..and the song is kick
Tuned down one fret

ok well everything is acoustic up to the second pre chorus then only
the verse is acoustic and after that everything is electric

Verse

---5-5-5-5---0-0-0-0-0----------
---5-5-5-5---0-0-0-0-0----------
--------------------------------
--------------------------------
--------------------------------
--------------------------------

Pre Chorus

---------------------------------------
---------------------------------------
---7-7-7-7-7---3-3-3-3-3----9-9-9-9-9--
---7-7-7-7-7---3-3-3-3-3----9-9-9-9-9--
---5-5-5-5-5---1-1-1-1-1----7-7-7-7-7--
---------------------------------------

Then Verse
pre chorus

Chorus
Gtr 1

--------------------|--------------------|-----------------
--------------------|--------------------|------------------
99999--77777--22222|-77777--44444--22222|7777-11111111-9999
-99999--77777--22222|-77777--44444--22222|7777-11111111-9999
-77777--55555--00000|-55555--22222--00000|5555--9-9-9-9-7777
-----------------------------------------|-----------------
Part 1 Part 2 Part 3
Play part 1,2,1,3

Chorus
gtr 2
simple part and the 1st string
and play it inbetween the break of gtr 1's part

-----5-5-4-5-4---------------

Interlude
play this only on the second string

------12-12-12-13-12-|--16-16-16-17-16--------
play this 3 times play this on the forth time

Bridge

gtr 1

------------------------------------------------
------------------------------------------------
------------------555555----3333333-------------
--77--77--77--77--555555----3333333-------------
--77--77--77--77--333333----1111111-------------
--55--55--55--55--------------------------------

Gtr 2
play this over guitar 1's part on the first and second strings
part 1
----------2-3-66-8-7-6--------------
--1-1--3----------------------------

part 2 on the second string only

--10-10-10-12-12-12----
--10-10-10-13-13-13----

and that's it..a bit long but there's a lot of parts to it


=
Tuned one one fret
Finger Eleven-Swallowtail
questions and comments to [email protected] Adam
Intro (1 Guitar)
e-5-5-6-5-6-5-6
Verse (1 Guitar)
e-5-5-5-5-5-3-3-0-0-0-0 repeat 4 times
Pre-Chorus Both Guitars
---------------------------------------
---------------------------------------
----------------2-222-2-2-55-----------
-8--888--3-333--2-222-2-2-55-----------
-8--888--3-333--0-000-0-0-33-----------
-6--666--1-111-------------------------
Then Verse and pre-chorus
Chorus Gtr 1
----------------------|---------------
----------------------|---------------
----------------------|--------------- h=Hold for 2
--9h---5h-------------|3333--7777----- beats
--9h---5h--5-5-5-5-5--|3333--7777-----
--7h---3h--5-5-5-5-5--|1111--5555-----
^3x ^1x
Gtr 2 Overtop of Gtr 1 some where near the middle
b-55-3-5-3-0
Interlude Gtr1
First ending
b-11-1212-11-12-13|11-1212-13-12-11|15-1616-15-16-17
2x 1x Second Ending
b-16-1717-16-17-18
play one time each
Gtr2
---------------------------------
---------------------------------
---------------------------------
-7-7-7-7-7-7-7-7-2-2-2-2-2-2-2-2-
-7-7-7-7-7-7-7-7-2-2-2-2-2-2-2-2-
-5-5-5-5-5-5-5-5-0-0-0-0-0-0-0-0-
Bridge Gtr1
End Part 1 End Part 2
b-----5--7-8-7-5|6-8-10--8-10-8|10-13-1313-10-1313-1013-1515
g-2-4-----------|-------------------------------------------
3x End Part 3
b-13-10-10-10-10-10-13-13-10-13-15-15
Gtr 2
-----------------------------
-----------------------------
-----------------------------
--------------5-55--3-33-----
-5--55--5--5--5-55--3-33-----
-5--55--5--5--3-33--1-11-----
Little part after bridge
a-1-0
That's it.. pretty cool song like i said and their new song is a killer
song too
Later




Ваше мнение



Капча