Suffocate
FINGER ELEVEN

Tabbed By HaL WaLLinG ( [email protected] )

Verse A (w/ Distortion and Octaver)--
=====================================
1:------------------------------
2:------------------------------
3:------------------------------
4:------------------------------
5:-2---2--2-2h3p2p0-2-3--3h5p3-
6:------------------------------

Verse B (w/ Distortion and Octaver)--
=====================================
1:--------------------------
2:--------------------------
3:--------------------------
4:--------------------------
5:-2---2--2-2h3p2p0h2/3/63-
6:--------------------------

Verse C (w/ Distortion)--
=========================
1:----------------------------
2:----------------------------
3:----------------------------
4:---------------------0h2p0--
5:-2---2--2-2h3p2p0-2---------
6:----------------------------

*Note: He plays these three riffs during the verse. Listen carefully to
figure out
which one he's playng when. Oh, and to make it sound more like the record
you may
want to play them and octave higher.

Verse D (w/ Distortion)--
=========================
1:-----------------------
2:-----------------------
3:-----------------------
4:--------4-4--5--7--8---
5:-2---2--2-2--3--5--6---
6:-----------------------

Pre-Chorus (w/ Distortion)--
============================
1:-------------------------------------------------------------------------------
2:-------------------------------------------------------------------------------
3:-9--9-9-9--5--5--5--5--5---9--9-9-9--5--5--5--5--5---9--9-9-9--5--5--5--5--5---
4:-9--9-9-9--5--5--5--5--5---9--9-9-9--5--5--5--5--5---9--9-9-9--5--5--5--5--5---
5:-7--7-7-7--3--3--3--3--3---7--7-7-7--3--3--3--3--3---7--7-7-7--3--3--3--3--3---
6:-------------------------------------------------------------------------------

1:------------------------
2:------------------------
3:-4---4---8-8--8-8-8-8-8-
4:-4---4---8-8--8-8-8-8-8-
5:-2---2---6-6--6-6-6-6-6-
6:------------------------

Chorus (w/ Distortion)--
========================
1:-----------------------------------------------------------------
2:-----------------------------------------------------------------
3:-9-9-9-9-9-9-9-9-----------------7-7-7-7-7-7-7-7-4-4-4-4-8-8-8-8-
4:-9-9-9-9-9-9-9-9-5-5-5-5-5-5-5-5-7-7-7-7-7-7-7-7-----------------
5:-7-7-7-7-7-7-7-7-5-5-5-5-5-5-5-5-5-5-5-5-5-5-5-5-2-2-2-2-6-6-6-6-
6:-----------------5-5-5-5-5-5-5-5---------------------------------

Riff A (w/ Distortion)--
========================
1:-----------------------------------------------------------------
2:-----------------------------------------------------------------
3:-5-5-5-5-5-5-5-5-5-5-5-5-5-5-5-5-2-2-2-2-2-2-2-2-2-2-2-2-2-2-2-2-
4:-5-5-5-5-5-5-5-5-5-5-5-5-5-5-5-5-2-2-2-2-2-2-2-2-2-2-2-2-2-2-2-2-
5:-3-3-3-3-3-3-3-3-3-3-3-3-3-3-3-3-0-0-0-0-0-0-0-0-0-0-0-0-0-0-0-0-
6:-----------------------------------------------------------------

1:-----------------------------------------------------------------
2:-----------------------------------------------------------------
3:-----------------------------------------------------------------
4:-2-2-2-2-2-2-2-2-2-2-2-2-2-2-2-2-0-0-0-0-0-0-0-0-0-0-0-0-0-0-0-0-
5:-2-2-2-2-2-2-2-2-2-2-2-2-2-2-2-2-0-0-0-0-0-0-0-0-0-0-0-0-0-0-0-0-
6:-2-2-2-2-2-2-2-2-2-2-2-2-2-2-2-2-0-0-0-0-0-0-0-0-0-0-0-0-0-0-0-0-

1:-----------------------------------------------------------------
2:-----------------------------------------------------------------

3:-5-5-5-5-5-5-5-5-5-5-5-5-5-5-5-5---------------------------------
4:-5-5-5-5-5-5-5-5-5-5-5-5-5-5-5-5-7-7-7-7-7-7-7-7-7-7-7-7-7-7-7-7-
5:-3-3-3-3-3-3-3-3-3-3-3-3-3-3-3-3-7-7-7-7-7-7-7-7-7-7-7-7-7-7-7-7-
6:---------------------------------7-7-7-7-7-7-7-7-7-7-7-7-7-7-7-7-

1:----------------------------------------------------------------
2:----------------------------------------------------------------
3:-4-4-4-4-4-4-4-4-4-4-4-4-4-4-4-4-4-4-4-4-4-4-4-4----------------
4:-4-4-4-4-4-4-4-4-4-4-4-4-4-4-4-4-4-4-4-4-4-4-4-4-4-5---5---7--8-
5:-2-2-2-2-2-2-2-2-2-2-2-2-2-2-2-2-2-2-2-2-2-2-2-2-2-3---3---5--6-
6:----------------------------------------------------------------

End on D#

That's all you need to know for the song, but just so you know, a second
guitar plays these riffs behind the chorus at the end of the song:

Chorus Riff A (w/ Distortion and Octaver)--
===========================================
1:--------------------------------
2:-----------------------------7~-
3:-9-7-8-9---------9-7-8-9--------
4:--------------------------------
5:--------------------------------
6:--------------------------------

Chorus Riff B (w/ Distortion and Octaver)--
===========================================
1:--------------------------------
2:-----------------------------7~-
3:-9-7-8-9---7-8-9---7-8-9--------
4:--------------------------------
5:--------------------------------
6:--------------------------------




Ваше мнение



Капча