Artist: Finger Eleven.
Song: Slow Chemical.
Album: None (WWE Forceable Entry).

Tabbed By: [email protected]

Tuning: Db Ab Db Gb Bb Eb.

KEY: / - Slide.
X - Palm Mute.

THE GOOD-OLD CANADIAN BAND!
P.S - This is the James Black part!

INTRO:

Eb|--------------------------------------------|
Bb|-3------------------------------------------|
Gb|-2------------------------------------------|
Db|-0--8--4-77-66--77-66--66--77-66--77-66--66-| X2
Ab|-0--8--4-44-44--44-44--44--44-44--44-44--44-|
Db|-0--8--4-44-44--44-44--44--44-44--44-44--44-|

Eb|--------------------------|
Bb|-3------------------------|
Gb|-2------------------------|
Db|-0--8--4-77-66--77-66--66-|
Ab|-0--8--4-44-44--44-44--44-|
Db|-0--8--4-44-44--44-44--44-|

The wonder of the world is gone...

VERSE:

Eb|----------------------------------|
Bb|----------------------------------|
Gb|----------------------------------|
Db|---7-7-7-7--7-7/5-5--5---7---5--8-| X3
Ab|---8-8-8-8--8-8/7-7--7-----8------|
Db|-0---------------------5----------|

Eb|------------------------|
Bb|-3-----3----------------|
Gb|-2-----2----------------|
Db|-0--8--0--8----7---5--8-|
Ab|-0--8--0--8------8------|
Db|-0--8--0--8--5----------|

Eb|----------------------------------|
Bb|----------------------------------|
Gb|----------------------------------|
Db|---7-7-7-7--7-7/5-5--5---7---5--8-| X3
Ab|---8-8-8-8--8-8/7-7--7-----8------|
Db|-0---------------------5----------|

PRE-CHORUS:

Eb|----------------|
Bb|----------------|
Gb|----------------|
Db|--------------7-|
Ab|----7--8--10----|
Db|-8--------------|

CHORUS:

Eb|--------------------------------------------------|
Bb|--------------------------------------------------|
Gb|--------------------------------------------------|
Db|---7--7--7-7/5-5--5-5-----8--8--8--8--10/7-7--7-7-|
Ab|---8--8--8-8/7-7--7-7----10-10-10-10--10/8-8--8-8-|
Db|-0---------------------0--------------------------|

Eb|---------------------------------------------------------|
Bb|---------------------------------------------------------|
Gb|---------------------------------------------------------|
Db|---7-7-7-7--7-7/5-5--5-5-----8--8--8--8--10-10/7--7-7--7-|
Ab|---8-8-8-8--8-8/7-7--7-7----10-10-10-10--10-10/8--8-8--8-|
Db|-0------------------------0------------------------------|
--------------------------------------------------X-X----

Eb|--------------------------------------------------|
Bb|--------------------------------------------------|
Gb|--------------------------------------------------|
Db|---7--7--7-7/5-5--5-5-----8--8--8--8--10/7-7--7-7-|
Ab|---8--8--8-8/7-7--7-7----10-10-10-10--10/8-8--8-8-|
Db|-0---------------------0--------------------------|

Eb|-------------------------------------------|
Bb|-------------------------------------------|
Gb|-------------------------------------------|
Db|---7-7-7-7--7-7/5-5--5-5-----8--8--10-7--7-|
Ab|---8-8-8-8--8-8/7-7--7-7----10-10--10-8--8-|
Db|-0------------------------0----------------|

BRIDGE:

Eb|-----------------------------------| |---|
Bb|-----------------------------------| |---|
Gb|-----------------------------------| |---|
Db|-44444444-33333333---0---0---0---0-| X4 |---|
Ab|-22222222-55555555-----------------| |---|
Db|-------------------3---3---2---2---| |-0-|

REPEAT CHORUS

OUTRO:

Eb|--------------------------------------------------|
Bb|--------------------------------------------------|
Gb|--------------------------------------------------|
Db|---7--7--7-7/5-5--5-5-----8--8--8--8--10/7-7--7-7-|
Ab|---8--8--8-8/7-7--7-7----10-10-10-10--10/8-8--8-8-|
Db|-0---------------------0--------------------------|

Eb|---------------------------------------------------------|
Bb|---------------------------------------------------------|
Gb|---------------------------------------------------------|
Db|---7-7-7-7--7-7/5-5--5-5-----8--8--8--8--10-10/7--7-7--7-|
Ab|---8-8-8-8--8-8/7-7--7-7----10-10-10-10--10-10/8--8-8--8-|
Db|-0------------------------0------------------------------|
--------------------------------------------------X-X----

Eb|--------------------------------------------------|
Bb|--------------------------------------------------|
Gb|--------------------------------------------------|
Db|---7--7--7-7/5-5--5-5-----8--8--8--8--10/7-7--7-7-|
Ab|---8--8--8-8/7-7--7-7----10-10-10-10--10/8-8--8-8-|
Db|-0---------------------0--------------------------|

Eb|------------------------------------------------------|
Bb|----------------------------------------------------3-|
Gb|----------------------------------------------------2-|
Db|---7-7-7-7--7-7/5-5--5-5-----8--8--10-7--7--7-7--7--0-| RING OUT...
Ab|---8-8-8-8--8-8/7-7--7-7----10-10--10-8--8--8-8--8--0-|
Db|-0------------------------0-------------------------0-|
--------------------------------------------X-X-------

LYRICS:

VERSE:

The wonder of the world is gone and old for sure
All the wonder that I would have found in her

As a hole becomes another strike to burn
An old flame returns

Every intuition fails to find it's way
One more table turned around I'm back again

Finding I'm a lost and found when she's not around
When she's not around I feel it coming down

CHORUS:

Get me what I could never ask for
Connect me and you could be my chemical NOW

Give me the drug you know I'm after
Connect me and you could be my chemical

BRIDGE:

When everybody wants (the chemical of) your soul

When everybody wants (the chemical of) your soul

Slow and
Everybody wants you
So
Slow and
Everybody wants your soul

CHORUS:

Give me what I could never ask for
connect me and you could be my chemical NOW

Give me the drug you know I'm after
Connect me and you could be the chemical

OUTRO:

You could be the chemical
You could be the chemical
You could be the chemical
You could be the chemical

BAND MEMBERS:

Scott Anderson - Vocals.
James Black - Guitar 1.
Rick Jackett - Guitar 2.
Sean Anderson - Bass.
Rich Beddoe - Drums.




Ваше мнение



Капча