FINGER ELEVEN
-sick of it all-
sullen version
incredible song and very emotional. have fun with this one. there is no bass
but it does have a cello. i dont play the cello so i cant tab it out for you.
sorry.
tabbed by Cory George [email protected]
Tuning:
Gtr.1: 12 string acoustic E-A-D-G-B-D#
Gtr.2: electric E-A-D-G-B-E
Gtr.3: 6 string acoustic E-A-D-G-B-D#
intro: gtr.2
|-----------------------------|-----------------------|
|-----------------------------|-------7---------7-----|
|o---9---9---9---9---9---9---o|---9-----9-----9---9-9-|
|o-7---7---7---7---6---6---6-o|-5---5-----5-----------|
|-----------------------------|-------------9-------8-|
|-----------------------------|-----------------------|
repeat x3
verse 1: gtr.3
|----------0---------------0------|-----------------------|
|------9-----9---9-----9-----9----|-------7---------7-----|
|o---9---9-----9-----9---9-----9-o|---9-----9-----9---9-9-|
|o-7---------------6-------------o|-5---5-----5-----------|
|---------------------------------|-------------9-------8-|
|---------------------------------|-----------------------|
repeatx3
chorus 1: gtr.1
|----------0-----------------------|---------0--------------0-|
|--------5----5---------5-------4--|-------5----5---------5---|
|o-----6--------6-----6-------6---o|-----6--------6-----6-----|
|o---6--------------6-------6-----o|---6--------------6-------|
|--4--------------2----------------|-4--------------2---------|
|------------------------4---------|--------------------------|
verse 2: gtr.1
|----------0---------------0------|-----------------------|
|------9-----9---9-----9-----9----|-------7---------7-----|
|o---9---9-----9-----9---9-----9-o|---9-----9-----9---9-9-|
|o-7---------------6-------------o|-5---5-----5-----------|
|---------------------------------|-------------9-------8-|
|---------------------------------|-----------------------|
repeat x3
chorus 2: gtr.1
|----------0-----------------------|---------0--------------------------------------|
|--------5----5---------5-------4--|-------5----5---------5-------4-------4-------4-|
|o-----6--------6-----6-------6---o|-----6--------6-----6-------6-------5-------5---|
|o---6--------------6-------6-----o|---6--------------6-------6-------6-------6-----|
|--4--------------2----------------|-4--------------2-------------------------------|
|------------------------4---------|------------------------4-------4-------4-------|
chorus 3: gtr.1
|--1----1----1----1--1-1-3----3----3----3--3-3--|
|--0----0----0----0--0-0-x----x----x----x--x-x--|
|o-2----2----2----2--2-2-1----1----1----1--1-1-o|
|o-2----2----2----2--2-2-2----2----2----2--2-2-o|
|--0----0----0----0--0-0-2----2----2----2--2-2--|
|--0----0----0----0--0-0------------------------|

gtr.2: let ring out and put slight vibrato on each note
|-------------------------12----------14----------------------14-------------|
|-14----------16----------------------------------14----------------------14-|
|----------------------------------------------------------------------------|
|----------------------------------------------------------------------------|
|----------------------------------------------------------------------------|
|----------------------------------------------------------------------------|
|-14------------------------12----------14----------------------17----------19-|
|--------14-----16----------------------------------14-------------------------|
|------------------------------------------------------------------------------|
|------------------------------------------------------------------------------|
|------------------------------------------------------------------------------|
|------------------------------------------------------------------------------|
|-20----------20----------------------12-----14-----11----------12-----14--------|
|-------------------------16--------------------------------------------------14-|
|--------------------------------------------------------------------------------|
|--------------------------------------------------------------------------------|
|--------------------------------------------------------------------------------|
|--------------------------------------------------------------------------------|
|-11-----12-----11-----14-----16-|--16--|--16brb--|-16~~~-|
|--------------------------------|------|---------|-------|
|--------------------------------|o----o|o-------o|-------|
|--------------------------------|o----o|o-------o|-------|
|--------------------------------|------|---------|-------|
|--------------------------------|------|---------|-------|
repeat x6




Ваше мнение



Капча