Song: Sad Exchange
Band: Finger Eleven
CD: Dare Devil Sound Track
Tabbed by: Guitar_Man101
Tuning: Db low to high(Db Ab Db Gb Bb Eb)
This is Finger Eleven’s newest track and it’s a great one. I’m pretty sure this
tab is right for the most part so enjoy.
X = plam mute
/ = slide
Intro
Eb|--------------------------------------------|
Bb|--------------------------------------------|
Gb|--------------------------------------------|
Db|-0-------------------7----------------7-----|Play this part 2 times.
Ab|-----------------8-----------------8--------|
Db|--0-0-0-0—0-0-0-------0-0-0-0--0-------10---|

Verse(0:17)
Eb|-------------------------------------------------------|
Bb|-------------------------------------------------------|
Gb|-------------------------------------------------------|
Db|------------------------7-----------------------7------|
Ab|-x--x-x-x-x---x-x-x--8-----x-x-x-x---x-x-x--8----------|
Db|-x--x-x-x-x---x-x-x--------x-x-x-x---x-x-x----------10-|
Eb|-----------------------------------------------------|
Bb|-----------------------------------------------------|
Gb|-----------------------------------------------------|
Db|---------------------7------------------------7------|Play this part 3 times.
Ab|-x-x-x-x---x-x-x--8-----x-x-x-x---x-x-x---8----------|
Db|-x-x-x-x---x-x-x--------x-x-x-x---x-x-x-----------10-|
Pre Chorus 1 (0:41)
Eb|-----------------------------------------------------------|
Bb|------------------2-------------------2------------------2-|
Gb|---3-3-3-3-3---3--3----3-3-3-3-3------3---3-3-3-3-3---3--3-|
Db|---3-3-3-3-3---3--0----3-3-3-3-3------0---3-3-3-3-3---3--0-|
Ab|---1-1-1-1-1---1--0--x-1-1-1-1-1-x-x--0---1-1-1-1-1---1--0-|
Db|------------------0--x-----------x-x--0------------------0-|

Eb|-------------------------------------|
Bb|-------------------------------------|
Gb|---3-3-3-3-3---3-----5-5-5-5-5-5-5-5-|
Db|---3-3-3-3-3---3-----5-5-5-5-5-5-5-5-|
Ab|---1-1-1-1-1---1-----3-3-3-3-3-3-3-3-|
Db|-------------------------------------|
|
This part is played at first palm muted and then eventually lift off.
Chorus 1 (0:53)
Eb|---------------------------------------------------------------------|
Bb|---------------------------------------------------------------------|
Gb|------7-7-7-7-7---7-7-7-7---7-7-----7-7-7-7-7-----7-7-7-7---7-7------|
Db|------7-7-7-7-7---7-7-7-7---7-7-----7-7-7-7-7-----7-7-7-7---7-7------|
Ab|------5-5-5-5-5---5-5-5-5---5-5-----5-5-5-5-5-----5-5-5-5---5-5------|
Db|---0--------------------------------8-8-8-8-8-----8-8-8-8---8-8------|
Eb|-----------------------------------|
Bb|-----------------------------------|
Gb|-7-7-7-7-7----7-7-7-7--------------|
Db|-7-7-7-7-7----7-7-7-7------8----12-|
Ab|-5-5-5-5-5----5-5-5-5------8----10-|
Db|-5-5-5-5-5----5-5-5-5---5/-8----10-|
Verse 2 (1:05)
Eb|-----------------------------------------------------|
Bb|-----------------------------------------------------|
Gb|-----------------------------------------------------|
Db|---------------------7-----------------------7-------| Play this 4 times.
Ab|-x-x-x-x---x-x-x--8-----x-x-x-x---x-x-x---8----------|
Db|-x-x-x-x---x-x-x--------x-x-x-x---x-x-x-----------10-|
Pre Chorus 2 (1:29)
Eb|------------------------------------------------------|
Bb|--------------------------3-------------------------3-|
Gb|---3-3-3-3-3----3---------2-----3-3-3-3-3-----------2-|
Db|---3-3-3-3-3----3---------0-----3-3-3-3-3-----------0-|
Ab|---1-1-1-1-1----1---x-----0-----1-1-1-1-1---x-x-----0-|
Db|--------------------x-----0-----------------x-x-----0-|
Eb|-----------------------------|
Bb|-----------------------------|
Gb|----------3-3-3-3-3---3------|
Db|----------3-3-3-3-3---3------|
Ab|----------1-1-1-1-1---1----x-|
Db|---------------------------x-|
Eb|------------------|
Bb|------------------|
Gb|------5---5---5-5-|
Db|------5---5---5-5-|
Ab|------3---3---3-3-|
Db|------------------|
Chorus 2 (1:40)
Eb|------------------------------------------------------------------|
Bb|------------------------------------------------------------------|
Gb|------7-7-7-7-7---7-7-7-7---7-7-----7-7-7-7-7-----7-7-7-7---7-7---|
Db|------7-7-7-7-7---7-7-7-7---7-7-----7-7-7-7-7-----7-7-7-7---7-7---|
Ab|------5-5-5-5-5---5-5-5-5---5-5-----5-5-5-5-5-----5-5-5-5---5-5---|
Db|-0----------------------------------8-8-8-8-8-----8-8-8-8---8-8---|
Eb|-------------------------|
Bb|-------------------------|
Gb|-7-7-7-7-7----7-7-7-7----|
Db|-7-7-7-7-7----7-7-7-7----|
Ab|-5-5-5-5-5----5-5-5-5----|
Db|-5-5-5-5-5----5-5-5-5----|
Eb|-------------------------|
Bb|-------------------------|
Gb|-------------------------|
Db|---8-8-8-8---12-12-12-12-|
Ab|---8-8-8-8---10-10-10-10-|
Db|---8-8-8-8---10-10-10-10-|
Eb|---------------------------------------------------------------|
Bb|---------------------------------------------------------------|
Gb|------7-7-7-7-7---7-7-7-7---7-7-----7-7-7-7-7-----7-7-7-7---7-7|
Db|------7-7-7-7-7---7-7-7-7---7-7-----7-7-7-7-7-----7-7-7-7---7-7|
Ab|------5-5-5-5-5---5-5-5-5---5-5-----5-5-5-5-5-----5-5-5-5---5-5|
Db|-0----------------------------------8-8-8-8-8-----8-8-8-8---8-8|
Eb|-------------------------------|
Bb|-------------------------------|
Gb|-------------------------------|
Db|---/---12--/--0-12-/--0-12-/-0-|
Ab|---/---12--/--0-12-/--0-12-/-0-|
Db|---/---12--/--0-12-/--0-12-/-0-|
Bridge (2:05)
Eb|--------------------------------------------------------------------|
Bb|--------------------------------------------------------------------|
Gb|---3-3-3-3-3-3-3-3-3-3-3-3-3-3-3-3----------------------------------|
Db|---3-3-3-3-3-3-3-3-3-3-3-3-3-3-3-3----------------------------------|
Ab|---1-1-1-1-1-1-1-1-1-1-1-1-1-1-1------7---------------7-------------|
Db|---------------------------------0-10------10-7---0-10---------10-7-|
Play the part above 3 times.
Eb|-------------------------------------------------------|
Bb|-------------------------------------------------------|
Gb|---3-3-3-3-3-3-3-3-3-3-3-3-3-3-3-3---3-3-3-3---5-5-5-5-|
Db|---3-3-3-3-3-3-3-3-3-3-3-3-3-3-3-3---3-3-3-3---5-5-5-5-|
Ab|---1-1-1-1-1-1-1-1-1-1-1-1-1-1-1-1---1-1-1-1---3-3-3-3-|
Db|-------------------------------------------------------|
Chorus 3 (2:30)
Eb|--------------------------------------------------------------------|
Bb|--------------------------------------------------------------------|
Gb|---9-9-9-9---9-9-9-9---9-9---9—9—9—9—9—9---9—9—9—9—9—9---9--9--9--9-|
Db|---9-9-9-9---9-9-9-9---9-9---9—9—9—9—9—9---9—9—9—9—9—9---9--9--9--9-|
Ab|---7-7-7-7---7-7-7-7---7-7---7—7—7—7—7—7---7—7—7—7—7—7---7--7--7—7--|
Db|-----------------------------10-10-10-10---10-10-10-10---10-10-10-10|
Eb|----------------------------------------------------------|
Bb|----------------------------------------------------------|
Gb|----------------------------------------------------------|
Db|---9-9-9-9---9-9-9-9---9-9-9---10-10-10-10----14-14-14-14-|
Ab|---9-9-9-9---9-9-9-9---9-9-9---10-10-10-10----14-14-14-14-|
Db|---7-7-7-7---7-7-7-7---7-7-7—--10-10-10-10----12-12-12-12-|
Eb|----------------------------------------------------------------------------|
Bb|----------------------------------------------------------------------------|
Gb|-9-9-9-9-9-9-9-9-9-9--9-9-9-9-9-9-9-9-9-9-9-9-9-9-9-9---9-9-9-9-9-9-9-9-9-9-|
Db|-9-9-9-9-9-9-9-9-9-9--9-9-9-9-9-9-9-9-9-9-9-9-9-9-9-9---9-9-9-9-9-9-9-9-9-9-|
Ab|-7-7-7-7-7-7-7-7-7-7--7-7-7-7-7-7-7-7-7-7-7-7-7-7-7-7---7-7-7-7-7-7-7-7-7-7-|
Db|----------------------10-10-10-10-10-10-10-10-10-10-10--7-7-7-7-7-7-7-7-7-7-|
Eb|----------------------------|
Bb|----------------------------|
Gb|----------------------------|
Db|---/-14--/-2—14-/--2—14-/-2-|
Ab|---/-14--/-2—14-/--2—14-/-2-|
Db|---/-14--/-2—14-/--2—14-/-2-|
Solo (2:53)
Eb|------------10--------12—10-------------------10--------|
Bb|---/-10----------10-----------/10-10-10-10--------------|
Gb|--------------------------------------------------------|
Db|--------------------------------------------------------|
Ab|--------------------------------------------------------|
Db|--------------------------------------------------------|
Play the part above 5 times.
Well thats it. If you have any comments or corrections please leave them.
Please rate this. Another good Finger Eleven tab is Slow Chemical Ver. 2
Finger Eleven is:
Scott Anderson - Vocals.
James Black - Guitar 1.
Rick Jackett - Guitar 2.
Sean Anderson - Bass.
Rich Beddoe - Drums.




Ваше мнение



Капча