Finger Eleven
Other light
Tuned in drop D down Ѕ step
B= bend
R= release
H= hammer on
P= pull off
= slide down
/= slide up
P.M.= palm mute
Intro
Guitar 1
1 -----------------9------------------------------
2 ------------9-10---10-9-------------9b10r9b10r9-
3 -6-6-6-------------------4-4-4------------------
4 -6-6-6-6-6---------------4-4-4-4-4--------------
5 -4-4-4-6-6---------------2-2-2-4-4--------------
6 -------6-6---------------------4-4--------------
Guitar 2
1 ------------------------------------------------
2 ------------------------------------------------
3 -6-6-6-------------------4-4-4------------------
4 -6-6-6-6-6-6-7----------4-4-4-4-4-4-6---------
5 -4-4-4-6-6-6-7----------2-2-2-4-4-4-6---------
6 -------6-6-6-7----------------4-4-4-6---------
Verse
Guitar 1 (clean with delay)
1 --------------15h17-17-17-17-17--------
2 -17-17-17-17---------------------15h17-
3 ---------------------------------------
4 ---------------------------------------
5 ---------------------------------------
6 ---------------------------------------
Chorus
Guitar 1&2
1 ---------------------------------
2 ---------------------------------
3 -9-9-9------------7-7-7----------
4 -9-9-9-9-9-9-10--7-7-7-7-7-7-9-
5 -7-7-7-9-9-9-10--5-5-5-7-7-7-9-
6 -------9-9-9-10--------7-7-7-9-
Solo
1 -------------------------------17-17-17-17-17-15-15-15-15-------
2 ----------17-17-17-17-17-15h17----------------------------15h17-
3 ----------------------------------------------------------------
4 -14-14-14-------------------------------------------------------
5 ----------------------------------------------------------------
6 ----------------------------------------------------------------
Interlude
Guitar 1 (clean) P.M. throughout
1 ------------------------------------
2 ------------------------------------
3 -----9------------------7-----------
4 –--9-------9----10----7-------7---9-
5 –7-------9----------5-------7-------
6 -------9-----10-----------7-----9---

Guitar 2 P.M. throughout
1 -------------------------------
2 -------------------------------
3 -------------------------------
4 -9-9-9-----------7-7-7---------
5 -7-7-7-9-9-9-10—-5-5-5-7-7-7-9-
6 -------9-9-9-10--------7-7-7-9-




Ваше мнение



Капча