#----------------------------------PLEASE NOTE--------------------------------#
#This file is the author's own work and represents their interpretation of the#
#song. You may only use this file for private study, scholarship, or research.#
#-----------------------------------------------------------------------------#
#-- File created with Instab - http://www.pconline.com/~smcarey/instab.html --#
#-----------------------------------------------------------------------------#

Author/Artist: Finger Eleven
Title: One Thing
Album: self titled
Transcribed by: Andrew Biles
Email: [email protected]

Well I went to see these guys play the other day at the Camden Underworld and out
came the yamaha acoustic thing and this song came out. So I picked up a couple
of things whilst watching and here it is. Guitar 2 may be less accurate as he
was swinging around waaaaay too much, and the intro/verse was finger picked.
Db tuning (Db, Ab, Db, Gb, Bb, Eb)

Intro/Verse
|------------------------------10-----10--------
|--10-----10------7-----7--------------------10-
|-----9------9------9-----9-------9------9------
|--7----7------7--7---7-----7--7----7------7-7--
|-----------------------------------------------
|-----------------------------------------------

Chorus - Guitar 1
|-------------------------------------------
|------10--------------------------10-------
|------9---------------------------7--------
|------7---------------------------x--------
|------0---------------------------9--------
|-------------------------------------------
If I traded it all.......... for one thing

Chorus - Guitar 2
|-------------------------------------------
|------10-----------------------------------
|------9---------------------------7--------
|------7---------------------------7--------
|------7---------------------------5--------
|------7---------------------------0--------
If I traded it all.......... for one thing

Well that's basically it. Only 2 main parts to this song, all repeated,
but sounds really nice.




Ваше мнение



Капча