Brian G.
Email: [email protected]
Band: Finger Eleven
Song: For The Ocean
Album: The Greyest of Blue Skies
This isn't a hard song but the singing makes it sound great! I have the
CD so it should be completely accurate! The tuning is Dropped D and
down a half step (Drop F). Enjoy.
Wait 4 measures- song starts off with heavy distortion (This part is
also used after a few choruses) Play the whole thing twice.
3X: Then (4th time):
|------------------------| |-----------------------------------|
|------------------------| |-----------------------------------|
|------------------------| |-----------------------------------|
|--0-0--0--0-------------| |-----------------------------------|
|--0-0--0--0-------------| |-9--9--9--9---9--9--9--9--9---9----|
|--0-0--0--0--11^12------| |-10-10-10-10--10-10-10-10-10--10---|
(Pick 6 times)
Verse (very quiet, then louder toward the end of the verse):
|---------------------------------------------------------------------|
|---------------------------------------------------------------------|
|---------------------------------------------------------------------|
|------12--12----------12--12----------12--12---------12--12----------|
|---------------------------------------------------------------------|
|-12-----12----12--12----12----12--12----12----12--12---12----12------|
Bridge:
|---------------------------------------------------------------------|
|---------------------------------------------------------------------|
|---------------------------------------------------------------------|
|--7--7-7--10-1010-7--7-7--x-10-10-10-7--7-7--10-1010-----------------|
|--5--5-5--8--8-8--5--5-5--x-8--8--8--5--5-5--8--8-8------------------|
|--5--5-5--8--8-8--5--5-5--x-8--8--8--5--5-5--8--8-8----11^12---------|
(Pick 12 times)
Chorus:
|---------------------------------------------------------------------|
|---------------------------------------------------------------------|
|---------------------------------------------------------------------|
|--0--0-0--0--0-0--2--2-2--2--2-2--3--3-3--3--3-3--2--2-2--2--2-2-----|
|--0--0-0--0--0-0--x--x-x--x--x-x--x--x-x--x--x-x--x--x-x--x--x-x-----|
|--0--0-0--0--0-0--2--2-2--2--2-2--3--3-3--3--3-3--2--2-2--2--2-2-----|
|------------------------------------------|
|------------------------------------------|
|------------------------------------------|
|--3--3-3--3--3-3--x-10-10-10-x-7--7--7----|
|--x--x-x--x--x-x--x-8--8--8--x-5--5--5----|
|--3--3-3--3--3-3--x-8--8--8--x-5--5--5----|
Interlude(There is a lot of strumming for this; listen to CD):
|-------------------------------------------------------------|
|-------------------------------------------------------------|
|-------------------------------------------------------------|
|--7----5----3----7--8--0---------8--10--------7--8-------7---|
|--x----x----x----x--x--x---------x--x---------x--x-------x---|
|--7----5----3----7--8--0---------8--10--------7--8-------7---|
|---------------------------------------------------------------------|
|---------------------------------------------------------------------|
|---------------------------------------------------------------------|
|--7--7-7--10-1010-7--7-7--x-10-10-10-7--7-7--10-1010-----------------|
|--5--5-5--8--8-8--5--5-5--x-8--8--8--5--5-5--8--8-8------------------|
|--5--5-5--8--8-8--5--5-5--x-8--8--8--5--5-5--8--8-8----11^12---------|
(play 24 times)
End (3x):
|------------------------|
|------------------------|
|------------------------|
|--0-0--0--0-------------|
|--0-0--0--0-------------|
|--0-0--0--0--11^12------|
(play 6 times)
Well that's it! Play along to the CD really loud and PISS YOU'RE
NEIGHBORS OFF! Have fun.
--Comments, Abuse, Praise, etc... E-mail me! (top of page)--
-L8er-
Brian


Ваше мнение



Капча