First Time Acoustic - Finger Eleven
I didn't realize it until I was almost done tabbing it, but it's basically the exact same as the normal
u might want to change the dynamix but that's about it.
Oh, just making sure that you all know, I didn't copy the other first time on five string... I tabbed that
just to make sure you guys know.. I didn't copy, I tabbed them both anyway.
Verse
G|-----------------------------------------------------|
D|-----------------------------------------------------|
A|-----------------------------------------------------|
E|--------------/-9-9-9----13--13-13-p-11-h-13---------|
B|--4-4-4-4--------------------------------------------|
Pre - Chorus
It's not that simple?
G|---------------------------------------|
D|---------------------------------------|
A|---------------------------------------|
E|---------------------------------------|
B|-------5-5-5-5-5-5---------------------| Just some 5's
Chorus
G|----------------------------------------------------------------------|
D|----------------------------------------------------------------------|
A|----------------------------------------------------------------------|
E|---4-4-4------------------------------4-4-4--6-6-6--------------------|
B|-------------4-4-4--5-5-5--4-4-4--------------------5-5-5---2-2-2-----|
Interlude
G|----------------------------------------------------|
D|---------------------------4-4-4-4------1-1-1-1-----|
A|--1-1-1-1---4-4-4-4---------------------------------|
E|----------------------------------------------------|
B|----------------------------------------------------|
G|------------------------------------------------------|
D|-------------------------4-4-4----3-3---1-1-1---------|
A|-1-1-1-1--4-4-4-4-------------------------------------|
E|------------------------------------------------------|
B|------------------------------------------------------|
Then if you want you can play this, it's inbetween the Interlude and Chorus
(play it quiet, and hold the notes after you play each one)
G|-----------------------------------------------------------|
D|-----------------------------------------------------------|
A|------------------------6----------------------------------|
E|-----4--------6--------------------------------------------|
B|-----------------------------------------------------------|
That's it, any corrections, questions, email me [email protected]
Finger Eleven is amazing, but when they play acoustic, it's almost better, but you get to hear more of
going on in the song, and pay more attention to the lyrics also.




Ваше мнение



Капча