Artist - Finger Eleven
Album - The Greyest Of Blue Skies
Song - Drag You Down
Tabbed by: [email protected]
Tuning: D A D G B E
KEY: x - mute string
. - palm mute (under notes or chords)
THIS IS ONE OF FINGER ELEVEN'S BEST SONGS!!!
INTRO:
E|-------------------------|
B|-------------------------|
G|-------------------------|
D|---7------------7------7-| X2 The drums kick in after
A|----------10-------------| playing this part twice...
D|-7---10-8-----7---10-8---|
E|--------------------------------------------------|
B|--------------------------------------------------|
G|------------------------------------------------7-|
D|---7------------7------7----7------------7------x-| X1
A|----------10-----------------------10-----------5-|
D|-7---10-8-----7---10-8----7---10-8-----7---10-8---|
This part is played with the drummer and the last two notes have heavy
distortion, directly after these notes is the verse which also is played with
heavy distortion.
VERSE:
E|-----------------|
B|-----------------|
G|---7777-----7-99-|
D|---xxxx-----x-xx-| X4
A|---5555-----5-77-|
D|-0------0-1------|
Singer: It's Biting It's Teething It's Biting I'm Bleeding.
E|-----------------|
B|-----------------|
G|---7777-----7-99-|
D|---xxxx-----x-xx-| X2
A|---5555-----5-77-|
D|-0------0-1------|
Singer: It's Calling It's Crawling It's Calling and I'm Falling.
E|-----------------|
B|-----------------|
G|---7777-----7-99-|
D|---xxxx-----x-xx-| X2
A|---5555-----5-77-|
D|-0------0-1------|
PRE-CHORUS:
E|-------------|
B|-------------|
G|---5-4---5-4-|
D|-------------|
A|-5-----2-----|
D|-------------|
CHORUS:
E|-------------------------|
B|-------------------------|
G|-777---------777---------|
D|-000---------777---------| X4
A|-000-1-1-0-1-555-3-3-1-1-|
D|-000-1-1-0-1-555-3-3-1-1-|
VERSE 2:
E|-----------------|
B|-----------------|
G|---7777-----7-99-|
D|---xxxx-----x-xx-| X4
A|---5555-----5-77-|
D|-0------0-1------|
Singer: They're Fighting They're Growing They're Fighting And They're Growing.
E|-----------------|
B|-----------------|
G|---7777-----7-99-|
D|---xxxx-----x-xx-| X2
A|---5555-----5-77-|
D|-0------0-1------|
Singer: I'm Biting I'm Teething I'm Bite Teething Bleeding.
E|-------------|
B|-------------|
G|-------------|
D|-0-0-0-0-0-0-| At this part you palm mute this at the end of the little
A|-0-0-0-0-0-0-| bass riff and as the singer is saying Teething Bleeding.
D|-0-0-0-0-0-0-|
. . . . . .
E|-----------------|
B|-----------------|
G|---7777-----7-99-|
D|---xxxx-----x-xx-| X2
A|---5555-----5-77-|
D|-0------0-1------|

REPEAT PRE-CHORUS
REPEAT CHORUS
E|--------------------------------------------------|
B|--------------------------------------------------|
G|------------------------------------------------7-|
D|---7------------7------7----7------------7------x-| X1
A|----------10-----------------------10-----------5-|
D|-7---10-8-----7---10-8----7---10-8-----7---10-8---|
E|------------------------|
B|------------------------|
G|----------------------7-|
D|---7-----------7------x-| X4 This part is played with heavy distortion.
A|----------10----------5-|
D|-7---10-8----7---10-8---|
E|-------------------------------|
B|-------------------------------|
G|-------------------------------|
D|-66666666-555555555-000-000-00-| X1
A|-66666666-555555555-000-000-00-|
D|-66666666-555555555-000-000-00-|
... ... ..
REPEAT CHORUS X2
YOU'RE DONE!!!
LYRICS:
VERSE
It's biting it's teething it's biting I'm bleeding
It's calling it's crawling it's calling and I'm falling
PRE-CHORUS
The perfect sound of middle ground
CHORUS
Pull me under before I try to drag you down
Someone has to pull me under before
I try to drag you down
VERSE 2
They're fighting they're growing they're fighting and I'm growing
I'm biting I'm teething I'm bleeding
BAND MEMBERS:
Vocals: Scott Anderson.
Guitar 1: James Black.
Guitar 2: Rick Jackett.
Bass: Sean Anderson.
Drums: Rich Beddoe.
P.S: Plz Rate this tab and if you like Disturbed I put Devour on a little
while ago and it needs to be rated!!!
Thx!




Ваше мнение



Капча