T1: Byron Coombes, [email protected], Finger Eleven
S1: Costume for a Gutterball - Finger Eleven
Tabbed by Byron Coombes
E-mail - [email protected]
Intro: Uses distortion
Eb -------------------------------------------------------------------------------
Bb -------------------------------------------------------------------------------
Gb -------------------------------------------------------------------------------
Db --0------8---10------8----10----0-----8---10-----------------8---10------------
Ab --0------8---10------8----10----0-----8---10----12(harmonic)-8---10------------
Db --0------8---10------8----10----0-----8---10-----------------8---10------------
Verse 1:
Eb ------------------------------------------------------------------------------------------
Bb ------------------------------------------------------------------------------------------
Gb ------------------------------------------------------------------------------------------
Db -----0---------------------------------------- 8-----10-----------------------8---10---
Ab -----0---------------------------------------- 8-----10-----------------------8---10---
Db -----0---------------------------------------- 8-----10-----------------------8---10---
The mask keeps on slipping and tearing, holes are big enough to
see,
Eb ----------------------------------------------------------------------------------
Bb ----------------------------------------------------------------------------------
Gb ----------------------------------------------------------------------------------
Db -0------------------------------------------8-----10-----------0-0-0-0-0-0-0------
Ab -0------------------------------------------8-----10------------------------------
Db -0------------------------------------------8-----10------------------------------
I strain and I'm bending to hear you , what did you tell me.
Chorus (note that this doesn't show strumming pattern):
Eb ----------------------------------------------------------------------
Bb ----------------------------------------------------------------------
Gb ----------------------------------------------------------------------
Db -0----3------------10--7-13p12----0---3----------8------5-------0-----
Ab -0----3------------10--7-13p12----0---3----------8------5-------0-----
Db -0----3------------10--7-13p12----0---3----------8------5-------0-----
So slow, you see me disappear. Takin in, taken away
Eb ------------------------------------------------------------------------
Bb ------------------------------------------------------------------------
Gb ------------------------------------------------------------------------
Db -0----3------------10--7-13p12----0---3----------8------5-------0-------
Ab -0----3------------10--7-13p12----0---3----------8------5-------0-------
Db -0----3------------10--7-13p12----0---3----------8------5-------0-------
You see me dissappear. Takin in, taken away
(in the last chorus repeat this 3rd line)
Eb ------------------------------------------------------------------------------------
Bb -10----------10---------------------------------------------------------------------
Gb ------------------------------------------9---10----------------9--10---10-/-12-----
Db -7-----------10-------------0-0-0-0-0-0---9---10--0-0-0-0-0-0---9--10---10-/-12-----
Ab -7-----------10-------------0-0-0-0-0-0---7---8---0-0-0-0-0-0---7---8---8--/-10-----
Db -7-----------10-------------0-0-0-0-0-0-----------0-0-0-0-0-0-----------------------
Caught in another memory
Eb ------------------------------------------------------------------------------------
Bb -10-------------10------------------------------------------------------------------
Gb --------------------------------------------------9--10------------------9--10-----
Db -7--------------10-------------------0-0-0-0-0-0--9--10---0-0-0-0-0-0----9--10-----
Ab -7--------------10-------------------0-0-0-0-0-0--7--8----0-0-0-0-0-0----7--8------
Db -7--------------10-------------------0-0-0-0-0-0----------0-0-0-0-0-0--------------
Looking for something, left to see
Eb -----------------------------------------------------------------------
Bb -10--------------------------------------------------------------------
Gb -----------------------------------------------------------------------
Db -7-------------1----/-------10-----------------------------------------
Ab -7-------------1----/-------10-----------------------------------------
Db -7-------------1----/-------10-----------------------------------------
Now I want something
2nd verse:
The one in the corner it's moving slowly up slowly down
Never too brilliant or clever it won't turn around
The mask keeps on slipping and tearing holes are big enough to see
No one will no that I'm looking they can't get to me
Chorus
Bridge: Uses Chorus
Eb --------------------------------------------------------------0--------
Bb ------------------------------------------------3-1---------1---3------
Gb -----2-0-2---------0------2-0-2---------0------------3-2-2---------2---
Db ---------------3-2------------------3-2--------------------------------
Ab -----------------------------------------------------------------------
Db --0---------0----------0---------0-------------------------------------
Eb -----------------------------------------------------------------------
Bb ------------------------------------------------3-1---------1----------
Gb -----2-0-2---------0------2-0-2---------0------------3-2-2-----3-2-2---
Db ---------------3-2------------------3-2--------------------------------
Ab -----------------------------------------------------------------------
Db --0---------0----------0---------0-------------------------------------
Eb --0------0------0------0--------
Bb ----3------3------3------3------
Gb ------2------2------2------2----
Db --------------------------------
Ab --------------------------------
Db --------------------------------
Eb ------------------------------------------------------------------------------
Bb ------------------------------------------------------------------------------
Gb ------------------------------------------------------------------------------
Db --0-------------0-----------0--------0-----0-------0-----------0--0-0-0-0-0---
Ab --0-------------0-----------0--------0-----0-------0-----------0--------------
Db --0-------------0-----------0--------0-----0-------0-----------0--------------
Caught in one more ??merry man sorry yeah??
Chorus
Ending: fade out
Eb ---------------------------------------------------------------
Bb ---------------------------------------------------------------
Gb ---------------------------------------------------------------
Db -0----0-0-0-0-------0-0-0-0------0-0-0-0-----0-0-0-0-----------
Ab -0-------------------------------------------------------------
Db -0-------------0------------0------------0-----------0---------




Ваше мнение



Капча