T1: Jared Larson, [email protected], Finger Eleven, Condenser, 09/15/98
S1: This song rules!, Transcribed by Jared Larson ([email protected])
Condenser
Tuning: Low to High---> dadgbe
I know all of their songs are down half a step,
but I think it's fun to play it like this. These
are the right chords, so you can play in any
tuning you like. It's correct though.
Fig 1 2x

e--------------------------------------------------------
b--------------------------------------------------------
g--------------------------------------------------------
d--3-3-3---6---8-8-8---9---3-3-3-x-x---3-3-3-x-x---------
a--3-3-3---6---8-8-8---9---3-3-3-x-x---3-3-3-x-x---------
D--3-3-3---6---8-8-8---9---3-3-3-x-x---3-3-3-x-x---------
2x Last time
e------------------------------------------------|--------
b------------------------------------------------|--------
g------------------------------------------------|--------
d--3-3-3---2---9-9-9---4---3-3-3-x-x---3-3-3-x-x-|-3------
a--3-3-3---2---9-9-9---4---3-3-3-x-x---3-3-3-x-x-|-3------
D--3-3-3---2---9-9-9---4---3-3-3-x-x---3-3-3-x-x-|-3------
End Fig 1
Fig. 2 2x
e-------------------|-----
b-------------------|-----
g-------------------|-----
d-2-2-2-2--2-2-2-2--|-3---
a-2-2-2-2--2-2-2-2--|-3---
D-2-2-2-2--2-2-2-2--|-3---
End Fig. 2
Fig 3 2x

e--------------------------------------------------------
b--------------------------------------------------------
g--------------------------------------------------------
d-3-3-x-x-x-x--3-3-x-x-x-x--11-11-x-x-x-x--11-x-x-x-x----
a-3-3-x-x-x-x--3-3-x-x-x-x--11-11-x-x-x-x--11-x-x-x-x----
D-3-3-x-x-x-x--3-3-x-x-x-x--11-11-x-x-x-x--11-x-x-x-x----
e--------------------------------------------------------
b--------------------------------------------------------
g--------------------------------------------------------
d-8-8-x-x-x-x--8-8-x-x-x-x--2-2-2-2-0-2-2-2-2------------
a-8-8-x-x-x-x--8-8-x-x-x-x--2-2-2-2-0-2-2-2-2------------
D-8-8-x-x-x-x--8-8-x-x-x-x--2-2-2-2-0-2-2-2-2------------
End Fig 3
Fig. 1
Fig. 2
Fig 4.
e----------------------------------------------
b-11--6---7---6b-r-b-r-------------------------
g-10--5---6------------------------------------
d-8---3---4------------------------------------
a-8---3---4------------------------------------
D-8---3---4------------------------------------
End Fig. 4
e--------------------------------------------------------
b--------------------------------------------------------
g--------------------------------------------------------
d-8-8-x-x-x-x--8-8-x-x-x-x--8-8-x-x-x-x--11-11-11-11-----
a-8-8-x-x-x-x--8-8-x-x-x-x--8-8-x-x-x-x--11-11-11-11-----
D-8-8-x-x-x-x--8-8-x-x-x-x--8-8-x-x-x-x--11-11-11-11-----
End Fig. 4
Fig. 1 A Couple of Times. Just listen to the CD.

The END.




Ваше мнение



Капча