!!! country !!!
hey all this song is bones and joints off of the greyest of blue skys cd there will be little extra parts that are missing but i'll give you the basic
this song is in db tunning which is tune your guitar down a half step then drop d
-----------------------------------------------
-----------------------------------------------
--5-5-4----------------------------------------
--5-5-4-0-2-2-2-2-2----------------------------
--3-3-2-0-2-2-2-2-2----------------------------
--------0-2-2-2-2-2----------------------------
close my eyes and tell me what to see i'm falling
-----------------------------------------------
-----------------------------------------------
-----------5----(5)----------------------------
---3--2-2--5-or (x)----------------------------
---3--2-2--3----(3)----------------------------
---3--2-2--------------------------------------
6x
don't minding---------- this part flows right off from the veres
-----------------------------------------------
-----------------------------------------------
-----------------------------------------------
---5--1--0---5--9--2---------------------------
---5--1--0---5--9--2---------------------------
---5--1--0---5--9--2---------------------------
6x 3x 3x 3x 3x 3x
i've been down here before all my bones and joints

so here is the basic of the song i'm missing the slide part for the one above but i'm not at home i'm at my buds and he doesn't have a guitar, we were just listening to the song on this computer and i figured it out and i'll promise you if you play this a long with the cd it will be right you'll have to get the timing right for the frist part is could be alittle tricky. but you'll get it, and if you want any lryics for fingereleven go to there web site fingereleven.com FINGER 11 RULES CAN'T WAIT FOR THERE NEW CD COMES OUT IN THE FALL OF 2002 and p.s never stop trying




Ваше мнение



Капча