t. See http://www.olga.net/faq/ for more information. #

Date: Sat, 1 Jan 2000 11:07:19 -0800 (PST)
From: n f
Subject: f/finger_eleven/awake_and_dreaming.tab

Awake and Dreaming by Finger 11
Music by James Black
Words by Scott Anderson
From the Album "Tip"

Verse
---0-----0--------------------------------------5-------R
---4-----3------------0-------------1-----------5-------E
---4-----4------------2-------------0-------------------P
---2-----2--------2--------------2-----------4----------E
----------------0--------------3-----------2------------A
--------------------------------------------------------T
Chorus
-----------------------0----------------------3----------2--
---------1-------------0----------1-----------3----------3--
---------0------------------------0-----------0------2------
------2------------2----------2--------------------0--------
---3------------2----------3-------------2------------------
-------------0-------------------------3--------------------

-----------------------0-----------------------------|
---------0h1-----------0--------------1-----------0--|
---------2--------------------------0-------------2--|
------2---------------2---------2-------------2------|
---0---------------2---------3-------------0---------|
----------------0------------------------------------|
Hard Interlude
-------------------------------------------R
-----------------3-----3-------------------E
-----------------2-----2----5----5----2----P
--2---2---4h5----0-----0----5----5----2----E
--2---2----------0-----0----3----3----0----A
--0---0------------------------------------T
GTR 2 (only occurs in the instrumental part, and with
the vocals the second time they occur)
-12----------12-------12-| -------------------
----12---12------12------| ---12-----12-----12
-------------------------| ------9------9----
-------------------------|OR------------------
-------------------------| ------------------
-------------------------| ------------------

The heavy Chorus is played with the same chords
played straight with distortion.
Second "Awake and Dreaming" part is played like
the hard interlude.

STRUCTURE OF SONG
Verse
Chorus
Verse
Chorus
Interlude
Heavy Chorus
Interlude
Outro (sim. to interlude)

TABBED BY ZERO606
send corrections to [email protected]




Ваше мнение



Капча