Title: Awake and Dreaming
Artist: Finger Eleven
Album: Tip
Tabbed by: Zac

Not very hard to pick up, very repetitive during the outro.
Tune to 5-string

Verse

G --------3/4
D -----------
A -----------
E ------4----
B -4-4-------

Chorus 1
G ------------------
D ------------------
A 2----2---2----2---
E ------2---------4-
B --4----2---444----

Chorus 2

G -----------------------------------------
D -----------------------------------------
A 2222------2222----------2222-----2222----
E --------------2222-------------------4444
B -----4444---------2222-------4444--------

Outro 1

G --------------------------
D --------------------------
A 66-8h9/44444--------------
E -------------77-9h10/44444
B --------------------------

Outro 2

G ----------------------
D ----------------------
A -66.-44444------------
E -----------77.-444444-
B ----------------------




Ваше мнение



Капча