e: Mon, 02 Feb 1998 23:51:13 +0100
From: Roger Olofsson
Subject: TAB: She Drives Me Crazy by Fine Young Cannibals
Song:She drives me crazy
Artist:Fine young cannibals
CD: The raw and the cooked
Tabber:Roger Olofsson ([email protected])
Credz to Jonas Persson for lending me the LP
Intro:
E------------------------------------|-----------------------------------|
B------------------------------------|-----------------------------------|
G---7--7-----5--5--------------------|--7--7----5--5---------------------|
D---7--7-----5--5--------------------|--7--7----5--5---------------------|
A---5--5-----3--3--------------------|--5--5----3--3---------------------|
e------------------------------------|-----------------------------------|
Then play twice (with soft distorsion)
Open D
Open G
Barre Bm at 7
Barre A at 5
D G Bm A
I can't stop
D A D A
The way I feel
D G Bm A
Things you do
D G D A
Don't seem real
Tell you what I got in mind
Coz we're runnin' outta time
Won't you ever set me free
This waitin''rounds killin' me
D G Bm A
She drives me crazy uh-uh
D G Bm A
Like no one else uh-uh
D G
She drives me crazy
Bm A D G Bm A
And I can't help myself
I can't get
any rest
People say
I'm obsessed
Everything that's serious lasts
But to me there's no surprise
What I have, I knew was true
Things go wrong, they always do
She drives me crazy uh-uh
Like no one else uh-uh
She drives me crazy
And I can't help myself
Play Intro followed by 3 times
D U D U D U D U D U D U D U D
E-10-10-10-10-10-x-x-10-x-11-x-11-11-11-11-11----------------------------|
B-10-10-10-10-10-x-x-10-x-11-x-11-11-11-11-11----------------------------|
G-11-11-11-11-11-x-x-11-x-11-x-11-11-11-11-11----------------------------|
D------------------------------------------------------------------------|
A------------------------------------------------------------------------|
e------------------------------------------------------------------------|
I won't make it,
(play riff above inbetween lines here)
On my own
(play riff above inbetween lines here)
No on likes,
(play riff above inbetween lines here)
To be alone
(play riff above inbetween lines here)
She drives me crazy uh-uh
Like no one else uh-uh
She drives me crazy
And I can't help myself
She drives me crazy uh-uh
Like no one else uh-uh
She drives me crazy
And I can't help myself
She drives me crazy uh-uh
Like no one else uh-uh
She drives me crazy
And I can't help myself
Fade

"Let freedom ring"
"Oh Rock of ages do not crumble love is breathing still"
"Oh Lady Moonshine down, a little people magic if you will"
E------------------------------------|-----------------------------------|
B------------------------------------|-----------------------------------|
G------------------------------------|-----------------------------------|
D------------------------------------|-----------------------------------|
A------------------------------------|-----------------------------------|
e------------------------------------|-----------------------------------|
--
[email protected], Roger Olofsson




Ваше мнение



Капча