Artist: Finch
Title: Worms Of The Earth
Record: letters To You (single), Atticus Dragging In The Lake
Tuning: Drop D + Half Step Down (Db Ab Db Gb)
Tabbed By: [email protected]
Intro 1: (Pickscrape For A Little Bit...Sounds Good)
eb|-----|
Bb|-----|
Gb|-5~--|
Db|-3~--|
Ab|-3~--|
Db|-3~--|
Intro 2:
eb|----------------------------------------------------------------|
Bb|----------------------------------------------------------------|
Gb|----------------------------------------------------------------|
Db|-2-2-2-2-2-2-2-2--3-3-3-3--2-2-2-2--5-5-5-5-5-5-5-5-5-5-5-5-5-5-|
Ab|-2-2-2-2-2-2-2-2--3-3-3-3--2-2-2-2--5-5-5-5-5-5-5-5-5-5-5-5-5-5-| 2x
Db|-2-2-2-2-2-2-2-2--3-3-3-3--2-2-2-2--5-5-5-5-5-5-5-5-5-5-5-5-5-5-|
eb|----------------------------------------------------------------|
Bb|----------------------------------------------------------------|
Gb|----------------------------------------------------------------|
Db|-5-5-5-5-5-5-3-3-3-3-2-2-2-2-5-5-5-5-5-5-5-5-3-3-3-3-2-2-2-2--5-|
Ab|-5-5-5-5-5-5-3-3-3-3-2-2-2-2-5-5-5-5-5-5-5-5-3-3-3-3-2-2-2-2--5-|
Db|-5-5-5-5-5-5-3-3-3-3-2-2-2-2-5-5-5-5-5-5-5-5-3-3-3-3-2-2-2-2--5-|
Verse: (guitar 1)
eb|-----------------------------------------------|
Bb|----------------------------10---10--10--------|
Gb|-10-10-10-10-10-10-10-10------10--------10-----|
Db|-8--8--8--8--8--8--8--8--------------------11--|
Ab|-8--8--8--8--8--8--8--8------------------------|
Db|-8--8--8--8--8--8--8--8------------------------|
eb|---------------------------------------------9------9-----9---|
Bb|---------------------------10---10--10---------10----10----10-|
Gb|-10-10-10-10-10-10-10-10-----10--------10---------10----10----|
Db|-8--8--8--8--8--8--8--8-------------------11------------------|
Ab|-8--8--8--8--8--8--8--8---------------------------------------|
Db|-8--8--8--8--8--8--8--8---------------------------------------|
Verse: (guitar 2)
eb|-----------------------------------------------------|
Bb|-----------------------------------------------------|
Gb|-10-10-10-10-10-10-10-10-10-10-10-10-10-10-10-10-10--|
Db|-8--8--8--8--8--8--8--8--8--8--8--8--8--8--8--8--8---|
Ab|-8--8--8--8--8--8--8--8--8--8--8--8--8--8--8--8--8---| 2x
Db|-8--8--8--8--8--8--8--8--8--8--8--8--8--8--8--8--8---|
Chorus: (guitar 2)
eb|---------------------------------------------------------------|
Bb|---------------------------------------------------------------|
Gb|-14-14-14-14-14-14-14-14--12--11-11-11-11--12--11-11-11-11--12-|
Db|--x--x--x--x--x--x--x--x---x---x--x--x--x---x---x--x--x--x---x-|
Ab|-12-12-12-12-12-12-12-12--10---9--9--9--9--10---9--9--9--9--10-|
Db|---------------------------------------------------------------|
eb|------------------|
Bb|------------------|
Gb|-7-7-7-7--5-5-5-5-|
Db|-x-x-x-x--x-x-x-x-|
Ab|-5-5-5-5--3-3-3-3-| 2x
Db|------------------|
Interlude:
eb|--------------------------------------|
Bb|--------------------------------------|
Gb|-------------5-5---------4-4----------|
Db|-3~---3-2-0--5-5--3-2-0--4-4--3-0-3-0-|
Ab|-3~---3-2-0--3-3--3-2-0--2-2--3-0-3-0-|
Db|-3~---3-2-0-------3-2-0-------3-0-3-0-|
Bridge:
eb|---------------|
Bb|---------------|
Gb|---------------|
Db|-3~---3~---0~~-|
Ab|-3~---3~---0~~-|
Db|-3~---3~---0~~-|
Outro:
eb|----------------------------------|
Bb|----------------------------------|
Gb|------------5-5---------4-4-------|
Db|-3---3-2-0--5-5--3-2-0--4-4--3-3--|
Ab|-3---3-2-0--3-3--3-2-0--2-2--3-3--|
Db|-3---3-2-0-------3-2-0-------3-3--|
End With:
eb|-----|
Bb|-----|
Gb|-----|
Db|-3-3-|
Ab|-3-3-|
Db|-3-3-|
(http://www.sharpeningbeneath.com)




Ваше мнение



Капча