song: without you here
band: finch
album: what it is to burn
tuning: low to high (Db, Ab, Db, Gb, Bb, Eb)

this song needs to be tabbed out correctly, finch is awesome and so is this song
the rythm is not tabbed out sorry
intro strum every once in a while
|-------------------------------------------|
|-------------------------------------------|
|-8-----------------------------------------|
|-x-----------------------------------------|
|-6~~~~-------------------------------------|
|-------------------------------------------|

verse
once again strum occasionally
|-------------------------------------------|
|-------------------------------------------|
|-9-----------8-----------------------------|
|-x-----------x-----------------------------|
|-7-----------6-----------------------------|
|-------------------------------------------|
it sounds like theres 3 diff. chords buts its really just the bass
harmonizing w/ the guitar

pre chorus

|-------------------------------------------|
|-------------------------------------------|
|------------------13-13-13-13-13-16-16-16--|
|-xxxxxx-xxxxxxxx--xx-xx-xx-xx-xx-xx-xx-xx--|
|-777777-99999999--11-11-11-11-11-14-14-14--|
|-------------------------------------------|

chorus

|-----------------------------------------------|
|-----------------------------------------------|
|-----------------------------------------------|
|-------------44444------------------4444-------|
|-66666-22222-22222-44444-66xxxx2222-2222-44444-|
|-66666-22222-------44444-66xxxx2222------44444-|

bridge/ final chorus

|-------|------------------------------------|
|-------|------------------------------------|
|-------|------------------------------------|
|-------|--4444------------------------------|
|11111pm|--2222-2222-6666-2222---------------|
|11111--|-------2222-6666-2222---------------|




Ваше мнение



Капча