Finch-With or without you (originally performed by U2)
[Not available on any of their albums, as it is a pre-preduction
demo so obviously it must be legal to download cos I have all their
albums which basically consists of 2 right now].
Notes played during quiet intro:[All of this is played 4 times]
E-----------------------------------------------------------------------|
B-----------------------------------------------------------------------|
G-----------------------------------------------------------------------|
D-------6-----6---6-----------------------------------------------------|X5
A---4-4---4-4---4-------------------------------------------------------|
E-----------------------------------------------------------------------|

E-----------------------------------------------------------------------|
B-----------------------------------------------------------------------|
G-----------------------------------------------------------------------|
D-------8-----8---8-------11-----11---11------6-----6---6---------------|
A---6-6---6-6---6-----8-8----8-8----8-----4-4---4-4---4-----------------|
E-----------------------------------------------------------------------|

Loud, distorted riff after intro [leads to verse]:
E-----------------------------------------------------------------------|
B-----------------------------------------------------------------------|
G-----------------------------------------------------------------------|
D---6-6-6-6-6-------------6-6-6-6-6-------------6-6-6-6-6--8-8-8-8-8----|
A---4-4-4-4-4--4-4-4-4-4--4-4-4-4-4--4-4-4-4-4--4-4-4-4-4--6-6-6-6-6----|
E--------------2-2-2-2-2-------------2-2-2-2-2--------------------------|
E-----------------------------------------------------------------------|
B-----------------------------------------------------------------------|
G-----------------------------------------------------------------------|
D---11-11-11-11-11-11---6-6-6-6-6-6-------------------------------------|
A---8--8--8--8--8--8----4-4-4-4-4-4-------------------------------------|
E-----------------------------------------------------------------------|

VERSE[Plays all this 2 times]:
E-----------------------------------------------------------------------|
B-----------------------------------------------------------------------|
G-----------------------------------------------------------------------|
D-------6-----6---6-----------------------------------------------------|X5
A---4-4---4-4---4-------------------------------------------------------|
E-----------------------------------------------------------------------|

E-----------------------------------------------------------------------|
B-----------------------------------------------------------------------|
G-----------------------------------------------------------------------|
D-------8-----8---8-------11-----11---11------6-----6---6---------------|
A---6-6---6-6---6-----8-8----8-8----8-----4-4---4-4---4-----------------|
E-----------------------------------------------------------------------|
[There isn't really a chorus, so this is played basically when Nate starts
singing 'oooh oh oh oh'][And it's played 2 times]:
E-----------------------------------------------------------------------|
B-----------------------------------------------------------------------|
G-----------------------------------------------------------------------|
D---6-6-6-6-6-------------6-6-6-6-6-------------6-6-6-6-6--8-8-8-8-8----|
A---4-4-4-4-4--4-4-4-4-4--4-4-4-4-4--4-4-4-4-4--4-4-4-4-4--6-6-6-6-6----|
E--------------2-2-2-2-2-------------2-2-2-2-2--------------------------|
E-----------------------------------------------------------------------|
B-----------------------------------------------------------------------|
G-----------------------------------------------------------------------|
D---11-11-11-11-11-11---6-6-6-6-6-6-------------------------------------|
A---8--8--8--8--8--8----4-4-4-4-4-4-------------------------------------|
E-----------------------------------------------------------------------|
Afterwards, the chords stop and things are quiet, although it
sounds like it's being played on bass this sounds just the same
[Played 3 times]:
E-----------------------------------------------------------------------|
B-----------------------------------------------------------------------|
G-----------------------------------------------------------------------|
D-----------------------------------------------------------------------|
A--4-4-4-4-4-4-4-4-4-4-4-4*---6-6-6-6-6-6-6-6-6-6-6-6-------------------|
E-----------------------------------------------------------------------|

E-----------------------------------------------------------------------|
B-----------------------------------------------------------------------|
G-----------------------------------------------------------------------|
D-----------------------------------------------------------------------|
A--8-8-8-8-8-8-8-8-8-8-8-8---4-4-4-4-4-4-4-4-4-4-4-4--------------------|
E-----------------------------------------------------------------------|
*It plays this note a few more times the first time.

After that has been played 3 times it then plays the normal set of chords
quietly, but then begins to get louder:
E-----------------------------------------------------------------------|
B-----------------------------------------------------------------------|
G-----------------------------------------------------------------------|
D---6-6-6-6-6-------------6-6-6-6-6-------------6-6-6-6-6--8-8-8-8-8----|
A---4-4-4-4-4--6-6-6-6-6--4-4-4-4-4--4-4-4-4-4--4-4-4-4-4--6-6-6-6-6----|
E--------------4-4-4-4-4-------------2-2-2-2-2--------------------------|
E-----------------------------------------------------------------------|
B-----------------------------------------------------------------------|
G-----------------------------------------------------------------------|
D---11-11-11-11-11-11---6-6-6-6-6-6-------------------------------------|
A---8--8--8--8--8--8----4-4-4-4-4-4-------------------------------------|
E-----------------------------------------------------------------------|
Once that has been played everything gets loud again and the drums come
in. It plays the normal set of chords again and finishes. [All of this
played 5 times]:
E-----------------------------------------------------------------------|
B-----------------------------------------------------------------------|
G-----------------------------------------------------------------------|
D---6-6-6-6-6-------------6-6-6-6-6-------------6-6-6-6-6--8-8-8-8-8----|
A---4-4-4-4-4--6-6-6-6-6--4-4-4-4-4--4-4-4-4-4--4-4-4-4-4--6-6-6-6-6----|
E--------------4-4-4-4-4-------------2-2-2-2-2--------------------------|
E-----------------------------------------------------------------------|
B-----------------------------------------------------------------------|
G-----------------------------------------------------------------------|
D---11-11-11-11-11-11---6-6-6-6-6-6-------------------------------------|
A---8--8--8--8--8--8----4-4-4-4-4-4-------------------------------------|
E-----------------------------------------------------------------------|
Finishing chord:
E-----------------------------------------------------------------------|
B-----------------------------------------------------------------------|
G-----------------------------------------------------------------------|
D--6~-------------------------------------------------------------------|
A--4~-------------------------------------------------------------------|
E-----------------------------------------------------------------------|

When everything gets loud again from the quiet bit and the drums come in,
a second guitar also comes in and then simply plays this till the end
[Played 6 times]:
E-----------------------------------------------------------------------|
B-----------------------------------------------------------------------|
G-----------------------------------------------------------------------|
D-----------------------------------------------------------------------|
A---14~-16~--7-6-2~-----------------------------------------------------|
E-----------------------------------------------------------------------|

After the final chord has been thrashed it plays this little bit[Outro]:
E-----------------------------------------------------------------------|
B--14~-16~--7--6---2~---------------------------------------------------|
G----------------3------------------------------------------------------|
D-----------------------------------------------------------------------|
A-----------------------------------------------------------------------|
E-----------------------------------------------------------------------|

LYRICS:
See the stone set in your eyes
See the thorn twist in your side
I'll wait for you
Slide of hand and twist of fate
On a bed of nails she makes me wait
And I wait....without you
With or without you
With or without you
Through the storm we reach the shore
You give it all but I want more
And I wait for you
I can't live with or without you
I can't live with or without you uhh huh
oooh oh oh oh
oooh oh oh oh
oooh oh oh oh ooh
I can't live
With or without you
I can't live with or without you uh uh
My hands are tied
My body bruised, she's got me with
Nothing to win
And nothing left to lose
And you give yourself away
And you give yourself away
And you give
And you give
And you give yourself away
And you give yourself away
And you give yourself away
And you give
And you give
And you give yourself away
I can't live with or without you
I can't live With or without you
I can't live With or without you
I can't live with or without you uh uh
This is one of the easiest songs in the world to play, it's a little
harder to tab because of the quality of the recording, but I managed
and that's it. Finch have just recorded their new album [they started
in mid February, but I think the release date is to be confirmed].




Ваше мнение



Капча