Ok, this song seems pretty simple. I think Finch play tuned down 1/2 a step but
I've kept this tab in standard tuning, cos you can. Sorry, you're going to have
to figure out the order of things, but it's not hard. The bridge part the second
guitar is quite roughly tabbed, it sounds like those octaves but strumming amounts
may be different.

Simple count-in intro
|-x-x-x-x-x-x-
|-x-x-x-x-x-x-
|-x-x-x-x-x-x-
|-x-x-x-x-x-x-
|-x-x-x-x-x-x-
|-x-x-x-x-x-x-

Verse
|---------------------------------------------
|---------------------------------------------
|-8--8-8-8-8-6--6-6-6-6-6--6-6-6-6-6--6-6-6-6-
|-8--8-8-8-8-6--6-6-6-6-6--6-6-6-6-6--6-6-6-6-
|-6--6-6-6-6-4--4-4-4-4-4--4-4-4-4-4--4-4-4-4-
|--------------------------------------------- x2

|---------------------------------------------
|---------------------------------------------
|-8--8-8-8-8-9--9-9-9-9-9--9-9-9-9-9--9-9-9-9-
|-8--8-8-8-8-8--8-8-8-8-8--8-8-8-8-8--8-8-8-8-
|-6--6-6-6-6-7--7-7-7-7-7--7-7-7-7-7--7-7-7-7-
|--------------------------------------------- x2

Chorus
|----------------------------------------------
|----------------------------------------------
|-8------------11----10---------10----11----10-
|-8--8----3----11----10----8----10----11----10-
|-6--8----3----9-----8-----8----8-----9-----8--
|----6----1----------------6-------------------

Bridge
Guitar 1
|---------------------------------------------
|---------------------------------------------
|-8--8-8-8-8-6--6-6-6-6-6--6-6-6-6-6--6-6-6-6-
|-8--8-8-8-8-6--6-6-6-6-6--6-6-6-6-6--6-6-6-6-
|-6--6-6-6-6-4--4-4-4-4-4--4-4-4-4-4--4-4-4-4-
|---------------------------------------------

Guitar 2
|--------------------------------------------
|--------------------------------------------
|--------------------------------------------
|-/10-10-/11-11-11-11-11-114-4-4-4-4-3-3-3-
|--x--x---x--x--x--x--x--x----x-x-x-x--x-x-x-
|-/8--8--/9--9--9--9--9--9-2-2-2-2-2-1-1-1-

any questions? [email protected]
_____________________
Lyrics:

Today's on fire
The sky is beating above me, and I am blister
I walk these signs of blasphemy, every day
And still:

Like a bad star, I'm falling faster down to her
She's the only one who knows, what it is to burn

I feel diseased
Is there no sympathy, for the sun
The sky's still fire
But I am safe in here, from the world outside

So tell me
What's the price to pay for glory

Like a bad star, I'm falling faster down to her
She's the only one who knows, what it is to burn

Today is fine, and she burns
Today is fine, and she burns
She burns
She burns
She burns
She burns
She burns
She burns

Like a bad star, I'm falling faster down to her
She's the only one who knows, what it is to burn




Ваше мнение



Капча