Artist: Finch
Song: What it is to Burn
Album :What it is to Burn
Tuning: All guitars are in dropped-D tuning one half step down
(low to high: Db Ab Db Gb Bb Eb).
pm.... = palm mute
/ = slide up
= slide down
h = hammer on
p = pull off
x = muted
* = harmonic
~ = vibrato
INTRO (0:00) Effects
(0:13) Violin transcribed to guitar 1 w/ clean tone
Eb|---------------------------------------------------------------------------|
Bb|---------------------------------------------------------------------------|
Gb|---------------------------------------------------------------------------|
Db|---------------------------------------------------------------------------|
Ab|-55555555------------------------------------------------------------------|
Db|-------------99999999---77777777---55555555--------------------------------|
pm........ ........ ........ ........
CHORUS (0:26), (1:17), (2:21), (3:41)
Both guitars (w/dist.)
E|----------------------------------------------------------------------------|
B|----------------------------------------------------------------------------|
G|-777777--6666/7777----------6666/7777----------6666/7777--------------------|
D|-777777--xxxx-xxxx--999999--xxxx-xxxx--777777--xxxx-xxxx--55555555555555----|
A|-555555--4444/5555--999999--4444/5555--777777--4444/5555--55555555555555----|
D|--------------------999999-------------777777-------------55555555555555----|
E|----------------------------------------------------------------------------|
B|----------------------------------------------------------------------------|
G|-777777--6666/7777----------6666/7777----------6666/7777----------6666------|
D|-777777--xxxx-xxxx--999999--xxxx-xxxx--777777--xxxx-xxxx--555555--xxxx------|
A|-555555--4444/5555--999999--4444/5555--777777--4444/5555--555555--4444-00---|
D|--------------------999999-------------777777-------------555555-------00-4*|
pm..
1st VERSE (0:51)
Guitar 1 (w/dist)
E|----------------------------------------------------------------------------|
B|----------------------------------------------------------------------------|
G|----------------------------------------------------------------------------|
D|-7777777777777777-----------------------------------------------------------|
A|-5555555555555555--9999999999999999--55555555555555555555555555555555-------|
D|-------------------9999999999999999--55555555555555555555555555555555-------|
pm................ ................ ................................
E|----------------------------------------------------------------------------|
B|----------------------------------------------------------------------------|
G|----------------------------------------------------------------------------|
D|-7777777777777777--------------------------------------77777777777777-------|
A|-5555555555555555--9999999999999999--5555555555555555--77777777777777-------|
D|-------------------9999999999999999--5555555555555555--77777777777777-------|
pm................ ................ ................ ..............
Guitar 2 (w/dist.)
E|-------7---5-----------7---5------------------------------------------------|
B|----------------------------------7--7--7--7--7--7--------------------------|
G|-----------------------------------7--7-----7--7----------------------------|
D|-7-------------------------------7--7--7--7--7--7---------------------------|
A|-5---------------9----------------------------------------------------------|
D|-----------------9----------------------------------------------------------|
2nd Verse (1:42)
Guitar 1 (w/dist.)
E|-----------------------------------------------------------------------|
B|-----------------------------------------------------------------------|
G|-----------------------------------------------------------------------|
D|-7777777777777777------------------------------------------------------| 2x
A|-5555555555555555--9999999999999999--55555555555555555555555555555555--|
D|-------------------9999999999999999--55555555555555555555555555555555--|
pm................ ................ ................................
E|----------------------------------------------------------------------------|
B|----------------------------------------------------------------------------|
G|----------------------------------------------------------------------------|
D|-7777777777777777--------------------------------------77777777777777-------|
A|-5555555555555555--9999999999999999--5555555555555555--77777777777777-------|
D|-------------------9999999999999999--5555555555555555--77777777777777-------|
pm................ ................ ................ ..............
Guitar 2 (w/dist.)
E|-------7---5-----------7---5-------------------------------------------|
B|----------------------------------7--7--7--7--7--7---------------------|
G|-----------------------------------7--7-----7--7-----------------------|
D|-7-------------------------------7--7--7--7--7--7----------------------| 2x
A|-5----------------9----------------------------------------------------|
D|------------------9----------------------------------------------------|
BRIDGE (2:47)
Guitar 1 (w/clean tone)
E|----12~-----------12~-------------------------------------------------------|
B|---------14~10~-------14~10~--7~/10~--7~/10-------------------------------|
G|----------------------------------------------------------------------------|
D|----------------------------------------------------------------------------|
A|----------------------------------------------------------------------------|
D|----------------------------------------------------------------------------|
(3:11)
E|----------------------------------------------------------------------------|
B|---10--8--7--8--7--5--7--3--------------------------------------------------|
G|----------------------------------------------------------------------------|
D|----------------------------------------------------------------------------|
A|----------------------------------------------------------------------------|
D|----------------------------------------------------------------------------|
Guitar 2 (w/clean tone)
E|---5-5-5-5-5-5-5-5-5-5-5-5-5-5-5-5-5-5-5-5-5-5-5-5--------------------------|
B|----------------------------------------------------------------------------|
G|----------------------------------------------------------------------------|
D|----------------------------------------------------------------------------|
A|----------------------------------------------------------------------------|
D|----------------------------------------------------------------------------|
FILL (3:53)
Guitar 2 (w/dist.) during 4th chorus
E|----------------------------------------------------------------------------|
B|---10--8--7--8--7--5--7--3--------------------------------------------------|
G|----------------------------------------------------------------------------|
D|----------------------------------------------------------------------------|
A|----------------------------------------------------------------------------|
D|----------------------------------------------------------------------------|
OUTRO (4:32)
Guitar 1 (w/dist.)
E|----------------------------------------------------------------------------|
B|----------------------------------------------------------------------------|
G|----------------------------------------------------------------------------|
D|---7-------2/4~----2/12~----------------------------------------------------|
A|---5------------------------------------------------------------------------|
D|----------------------------------------------------------------------------|
Guitar 2 (w/dist.)
E|----------------------------------------------------------------------------|
B|----------------------------------------------------------------------------|
G|----------------------------------------------------------------------------|
D|-----0----------------------------------------------------------------------|
A|-----0----------------------------------------------------------------------|
D|-----0----------------------------------------------------------------------|




Ваше мнение



Капча