Artist-Finch
Song-Untitled (track #10/15)
Album-What It Is To Burn
www.finchmusic.com

Drop D Tuning + 1/2 step down

INTRO (Both Guitars, 2nd Guitar waits then comes in)
eb|--------------------------------------------------------------------------
Bb|--------------------------------------------------------------------------
Gb|--444-444-444-444---------------------------------------------------------
Db|--444-444-444-444-----keep repeating...-----------------------------------
Ab|--222-222-222-222---------------------------------------------------------
Db|--------------------------------------------------------------------------

INTRO PART 2/Chorus (Guitar 1)
eb|---------------------------------------------------------------------------
Bb|---------------------------------------------------------------------------
Gb|--444------444-------------------------444------444------------------------
Db|--444------444------55555555-----------444------444------55555555----------
Ab|--222------222------55555555-----------222------222------55555555----------
Db|--------------------55555555-----------------------------55555555----------

INTRO PART 2/Chorus (Guitar 2)(listen carefully to know when to play the parts)
(end of intro/Chorus going into verse)
eb|---------------------------------------------------------------------------
Bb|---------------------------------------------------------------------------
Gb|-----------------------1114--12--11-----11-11-11-11--x2--1114--12--11----
Db|----11-11-11-11-x2-----x--x---x---x-----------------------x--x---x---x-----
Ab|-----------------------9-12--10--9-----------------------9-12--10--9-----
Db|---------------------------------------------------------------------------

eb|------------
Bb|------------
Gb|-1114--16~-
Db|-X--X---X---
Ab|-9-12--14~-
Db|------------

1st time verse (both Guitars)
eb|---------------------------------------------------------------------------
Bb|---------------------------------------------------------------------------
Gb|---------------------------------------------------------------------------
Db|--0~-----------------------------------------------------------------------
Ab|--0~-Let ring...-----------------------------------------------------------
Db|--0~-----------------------------------------------------------------------

Pre-Chorus (Guitar 1) (Guitar 2, waits a little...)
eb|-----------------------------------||--------------------------------------
Bb|-----------------------------------||--------------------------------------
Gb|-----------------------------------||---11-11-11-1112-12-12-12------------
Db|---444-444-444-444-444-444-444-444-||---x--x--x--x--x--x--x--x-------------
Ab|---444-444-444-444-444-444-444-444-||---9--9--9--9-10-10-10-10------------
Db|---444-444-444-444-444-444-444-444-||--------------------------------------

***Play Chorus HERE***

Verse 2nd time(both guitars,Palm mute)
eb|---------------------------------------------------------------------------
Bb|---------------------------------------------------------------------------
Gb|---------------------------------------------------------------------------
Db|---00000000---2222-5555----------------------------------------------------
Ab|---00000000---2222-5555----------------------------------------------------
Db|---00000000---2222-5555----------------------------------------------------
........ .... ....

***Per CHORUS***
Then
***CHORUS***

Interlude...(Guitar 1)
eb|---------------------------------------------------------------------------
Bb|---------------------------------------------------------------------------
Gb|-----11--------------------------------------------------------------------
Db|-----x----keep strumming....-----------------------------------------------
Ab|-----9---------------------------------------------------------------------
Db|-----0---------------------------------------------------------------------

Interlude (Guitar 2 comes in after awhile...)(KEEP Strumming each Chord)
eb|-----------------------------------||--------------------------------------
Bb|-----------------------------------||---------------------------------------
Gb|-----11-12--------keep strumming--||----11--7---1211-----1211~--------
Db|-----x---x-------------------------||----x----x----x--x-------x--x----------
Ab|-----9--10------------------------||----9---5---109------109-~--------
Db|-----------------------------------||---------------------------------------

End of Interlude, Both guitars start messing with this chord...
eb|---------------------------------------------------------------------------
Bb|---------------------------------------------------------------------------
Gb|---11----------------------------------------------------------------------
Db|---x-----------------------------------------------------------------------
Ab|---9-----------------------------------------------------------------------
Db|---0-----------------------------------------------------------------------

Ending (Guitar 1, Just keep repeating)
eb|---------------------------------------------------------------------------
Bb|---------------------------------------------------------------------------
Gb|--444----------------------------------------------------------------------
Db|--444----555---------------------------------------------------------------
Ab|--222----555---------------------------------------------------------------
Db|---------555---------------------------------------------------------------

Ending (Guitar 2, at 1st play same thing as 1st guitar then after a while play this)
eb|---------------------------------------------------------------------------
Bb|--------------------------7777-7777-7777-7777------------------------------
Gb|-----6666-6666-6666-6666---------------------------------------------------
Db|---------------------------------------------------------------------------
Ab|---------------------------------------------------------------------------
Db|---------------------------------------------------------------------------

END WITH THIS
eb|---------------------------------------------------------------------------
Bb|---------------------------------------------------------------------------
Gb|------------------------------------4-4-4----------------------------------
Db|------------------------------------4-4-4----------------------------------
Ab|------------------------------------2-2-2----------------------------------
Db|---------------------------------------------------------------------------




Ваше мнение



Капча