-------------------------------------------------------------------------------
STAY WITH ME - Finch
-------------------------------------------------------------------------------

Tabbed By : Chris Cyhan
e-mail: [email protected]

Tuning: Standard E (4-string), Drop B (5-string)

Riff #1:
(Repeat 2 times)
G|---------------------------------------------------------------------------|
D|---------------------------------------------------------------------------|
A|-0-0--0-0------------------------------------------------------------------|
E|-----------2-2--2-2--------------------------------------------------------|

Riff #2:
(Repeat 1 time)
G|---------------------------------------------------------------------------|
D|---------------------------------------------------------------------------|
A|---------------------------------------------------------------------------|
E|-0-------------------------------------------------------------------------|

Riff #3:
(Repeat 4 times)
G|---------------------------------------------------------------------------|
D|---------------------------------------------------------------------------|
A|-00000000-00000000---------------------------------------------------------|
E|-------------------22222222-22222222---------------------------------------|

Riff #2
(Repeat 4 times)

Riff #1
(Repeat 4 times)

Riff #2
(Repeat 1 time)

Riff #3
(Repeat 4 times)

Riff #2
(Repeat 4 times)

Riff #3
(Repeat 2 times)

Riff #4
(Repeat 4 times)
G|---------------------------------------------------------------------------|
D|---------------------------------------------------------------------------|
A|-00000000-22222222-55555555------------------------------------------------|
E|----------------------------55555555-22222222-00000000---------------------|

Riff #5
(Repeat 2 times)
G|---------------------------------------------------------------------------|
D|---------------------------------------------------------------------------|
A|-0-0-0--0-0-0--------------------------------------------------------------|
E|---------------2-2-2--2-2-2------------------------------------------------|

Riff #4
(Repeat 4 times)

Riff #6
(Repeat 1 time)
G|---------------------------------------------------------------------------|
D|---------------------------------------------------------------------------|
A|-00000000-22222222-5-------------------------------------------------------|
E|---------------------------------------------------------------------------|




Ваше мнение



Капча