Artist-Finch
Song-Post Script
Album-What It Is To Burn
www.finchmusic.com

Tuning: Low to High (Db Ab Db Gb Bb Eb)

Intro 1: Guitar 2 (Distortion Harmonics)
Eb|--------------------------------------------------------------------
Bb|--------------------------------------------------------------------
Gb|--------------------------------------------------------------------
Db|----------5-5----------5-5-----------------5-5----------5-5---------
Ab|------4-4----------4-4---------4-4-----4-4----------4-4---------4-4-
Db|--5-5----------5-5---------5-5-----5-5----------5-5---------5-5-----

Intro 2: Guitar 1 (Distortion)
Eb|--------------------------------------------------------------------
Bb|--------------------------------------------------------------------
Gb|--7--7-7-7-7-7--7--7-7-7-7-7--14--14-14-14-14-14--14-14-14-14-14-14-
Db|--x--x-x-x-x-x--x--x-x-x-x-x--x---x--x--x--x--x---x--x--x--x--x--x--
Ab|--5--5-5-5-5-5--5--5-5-5-5-5--12--12-12-12-12-12--12-12-12-12-12-12-
Db|--------------------------------------------------------------------

Eb|-------------------------------------------------------------------------
Bb|-------------------------------------------------------------------------
Gb|--14--14-14-14-14-14--14-14-14-14-14-14-14--14-14-14-14-14--9--9-9-9-9-9-
Db|--x---x--x--x--x--x---x--x--x--x--x--x--x---x--x--x--x--x---x--x-x-x-x-x-
Ab|--12--12-12-12-12-12--12-12-12-12-12-12-12--12-12-12-12-12--7--7-7-7-7-7-
Db|-------------------------------------------------------------------------

Verse: Guitar 1
Eb|--------------------------------------------------------------------
Bb|--------------------------------------------------------------------
Gb|--------------------------------------------------------------------
Db|--5--5-5-5---0--0-0-0---9--9-9-9---7--7-7-7-------------------------
Ab|--5--5-5-5---0--0-0-0---9--9-9-9---7--7-7-7-------------------------
Db|--5--5-5-5---0--0-0-0---9--9-9-9---7--7-7-7--x~~~~~~~~~~~~~~~~~~~~~~
(Let Ring/Pick Scrape)

Verse: Guitar 2 (After Guitar 1 Plays 1st Time)
Eb|--------------------------------------------------------------------
Bb|--------------------------------------------------------------------
Gb|--7-7-7-7-7-7-7-7-7-7-7-7-7-7-7-7-7-7-7-7-7-7-7-7-7-7-7-7-7-7-7-7---
Db|--------------0-0-0-0-0-0-0-0-0-0-------------0-0-0-0-0-0-0-0-0-0---
Ab|--------------------------------------------------------------------
Db|--------------------------------------------------------------------

Chorus: Guitar 1
Eb|---------------------------------------------------------------------------
Bb|---------------------------------------------------------------------------
Gb|------7-----7----------7-----7----------7-----7----------------------------
Db|--4-5---4-5---5-0--4-5---4-5---5-0--4-5---4-5---5-0--0-0-4-4-5-5-0-0-4-4-5-
Ab|-----------------------------------------------------0-0-4-4-5-5-0-0-4-4-5-
Db|-----------------------------------------------------0-0-4-4-5-5-0-0-4-4-5-

Chorus: Guitar 2
Eb|-------------------------------------------------------------------
Bb|-------------------------------------------------------------------
Gb|-------------------------------------------------------------------
Db|--9-9-9-9-9-9-9-9-9-9-9-9-9-9-9-9--0-0-0-0-0-0-0-0-0-0-0-0-0-0-0-0-
Ab|--9-9-9-9-9-9-9-9-9-9-9-9-9-9-9-9--0-0-0-0-0-0-0-0-0-0-0-0-0-0-0-0-
Db|--9-9-9-9-9-9-9-9-9-9-9-9-9-9-9-9--0-0-0-0-0-0-0-0-0-0-0-0-0-0-0-0-

Eb|-------------------------------------------------------------------
Bb|-------------------------------------------------------------------
Gb|-------------------------------------------------------------------
Db|--9-9-9-9-9-9-9-9-9-9-9-9-9-9-9-9--0-0-4-4-5-5-0-0-4-4-5-5--0-0-4-4
Ab|--9-9-9-9-9-9-9-9-9-9-9-9-9-9-9-9--0-0-4-4-5-5-0-0-4-4-5-5--0-0-4-4
Db|--9-9-9-9-9-9-9-9-9-9-9-9-9-9-9-9--0-0-4-4-5-5-0-0-4-4-5-5--0-0-4-4

Chorus: Outro 2nd Time - Guitar 1 & 2
Eb|--------------------------------------------------------------------
Bb|--------------------------------------------------------------------
Gb|--------------------------------------------------------------------
Db|--0-0-4-4-5-5-0-0-4-4-5-5--0-0-4-4--0-0-4-4-5-5-0-0-4-4-5-5--0-0-4-4
Ab|--0-0-4-4-5-5-0-0-4-4-5-5--0-0-4-4--0-0-4-4-5-5-0-0-4-4-5-5--0-0-4-4
Db|--0-0-4-4-5-5-0-0-4-4-5-5--0-0-4-4--0-0-4-4-5-5-0-0-4-4-5-5--0-0-4-4

(Guitar 1 only)
Eb|--------------------------------------------------------------------
Bb|--------------------------------------------------------------------
Gb|--------------------------------------------------------------------
Db|--0-----------------------------------------------------------------
Ab|--0-----------------------------------------------------------------
Db|--0-----------------------------------------------------------------

Interlude: Guitar 2 (Clean)
Eb|--------------------------------------------------------------------
Bb|--------------------------------------------------------------------
Gb|--7-----7-----7---0-----0-----0---7-----7-----7---0-----0-----0-----
Db|4---4-4---4-4---0---0-0---0-0---4---4-4---4-4---0---0-0---0-0-------
Ab|--------------------------------------------------------------------
Db|--------------------------------------------------------------------

Eb|--------------------------------------------------------------------
Bb|--------------------------------------------------------------------
Gb|----------7------7---------7-----7---------7-----7---------7-----7--
Db|----5----------5-----7---------7-----7---------7-----7---------7----
Ab|-------------------5---5-5---5--------------------------------------
Db|--5---5-5----5---------------------0---0-0---0-----0---0-0---0------

Ending: Guitar 1 & 2 (Distortion)
Eb|--------------------------------------------------------------------
Bb|--------------------------------------------------------------------
Gb|--------------------------------------------------------------------
Db|--0-0-0-0-0-0-0-0-0-0-0-0-0-0-0-0-0-0-0-0-0-0-0-0-0-0-0-0-0-0-0-0-0-
Ab|--0-0-0-0-0-0-0-0-0-0-0-0-0-0-0-0-0-0-0-0-0-0-0-0-0-0-0-0-0-0-0-0-0-
Db|--0-0-0-0-0-0-0-0-0-0-0-0-0-0-0-0-0-0-0-0-0-0-0-0-0-0-0-0-0-0-0-0-0-

Eb|--------------------------------------------------------------------
Bb|--------------------------------------------------------------------
Gb|--------------------------------------------------------------------
Db|--4-4-4--4----5-5-5--4----4-4-4--4----5-5-5--4----0-----------------
Ab|--4-4-4----5--5-5-5----5--4-4-4----5--5-5-5----5--0-----------------
Db|--4-4-4-------5-5-5-------4-4-4-------5-5-5-------0-----------------




Ваше мнение



Капча