Music X Tabs [http://www.mxtabs.net]
Song: New Beginnings
Artist: Finch
Album: What it is to Burn
Tabbed By: Tommi S.
Tuning: Down One Whole Step (D,G,C,F,A,D)

Intro:

Asus2
1:|--------------------------|
2:|--------2-----2-----2-----|
3:|--------------------------|
4:|-----4-----4-----4--------| 6x
5:|--2--------------------1--|
6:|--------------------------|

Then:

Asus2 G#m
1:|--------------------------2--1--|
2:|--------2-----2-----------------|
3:|--------------------------------|
4:|-----4-----4-----4-----3--------| Guitar 1
5:|--2-----------------1-----------|
6:|--------------------------------|

A5 G#5
1:|--------------------------------|
2:|--------------------------------|
3:|--4--4---4---4--4---3--3--3--3--|
4:|--4--4---4---4--4---3--3--3--3--| Guitar 2
5:|--2--2---2---2--2---1--1--1--1--|
6:|--------------------------------|

Verse:

A5
1:|---------------------------------|
2:|---------------------------------|
3:|--4-4-4-4-4-4-4-4-4-4-4-4-4-4-4--|
4:|--4-4-4-4-4-4-4-4-4-4-4-4-4-4-4--|
5:|--2-2-2-2-2-2-2-2-2-2-2-2-2-2-2--|
6:|---------------------------------|
pm . . . . . . . . . . . . . . .

G#5
1:|---------------------------------|
2:|---------------------------------|
3:|--3-3-3-3-3-3-3-3-3-3-3-3-3-3-3--|
4:|--3-3-3-3-3-3-3-3-3-3-3-3-3-3-3--|
5:|--1-1-1-1-1-1-1-1-1-1-1-1-1-1-1--|
6:|---------------------------------|
pm . . . . . . . . . . . . . . .

End of the verse:

1:|--2-2-2-2-2-2-2-2-2-2-2--|
2:|--2-2-2-2-2-2-2-2-2-2-2--|
3:|--3-3-3-3-3-3-3-3-3-3-3--|
4:|-------------------------|
5:|-------------------------|
6:|-------------------------|

Chorus:

Asus2 G#m
1:|--------------------------2-2-1-1-1-1--|
2:|--------2-----2-----------2-2-2-2-2-2--|
3:|---------------------------------------|
4:|-----4-----4-----4-----3---------------| Guitar 1
5:|--2-----------------1------------------|
6:|---------------------------------------|

A5 G#5
1:|--------------------------------|
2:|--------------------------------|
3:|--4--4---4---4--4---3--3--3--3--|
4:|--4--4---4---4--4---3--3--3--3--| Guitar 2
5:|--2--2---2---2--2---1--1--1--1--|
6:|--------------------------------|

Bridge:

F#5 A5
1:|--------------------------------------|----------------------------------|
2:|--------------------------------------|----------------------------------|
3:|-------------------4--4--4--4-4--4--4-|-3-3-3-3-3-3-3-3-3-3-3-3-3-3-3-3--|
4:|--6--6--6-6--6--6--4--4--4--4-4--4--4-|-3-3-3-3-3-3-3-3-3-3-3-3-3-3-3-3--| 3x
5:|--6--6--6-6--6--6--2--2--2--2-2--2--2-|-1-1-1-1-1-1-1-1-1-1-1-1-1-1-1-1--|
6:|--4--4--4-4--4--4---------------------|----------------------------------|
pm . . . . . . . . . . . . . . . .

F#5 A5
2:|---------------------------------------|
2:|---------------------------------------|
3:|-------------------4--4--4--4-4--4--4--|
4:|--6--6--6-6--6--6--4--4--4--4-4--4--4--|
5:|--6--6--6-6--6--6--2--2--2--2-2--2--2--|
6:|--4--4--4-4--4--4----------------------|

G#5
1:|---------------------------------|
2:|---------------------------------|
3:|--3-3-3-3-3-3-3-3-3-3-3-3-3-3-3--|
4:|--3-3-3-3-3-3-3-3-3-3-3-3-3-3-3--| 2x
5:|--1-1-1-1-1-1-1-1-1-1-1-1-1-1-1--|
6:|---------------------------------|
pm . . . . . . . . . . . . . . .

1:|---------------------------|
2:|--2-2-2-2-2-2-2-2-2-2-2-2--|
3:|--3-3-3-3-3-3-3-3-3-3-3-3--|
4:|---------------------------|
5:|---------------------------|
6:|---------------------------|

Chorus ver.2:

Asus2 G#5 Asus2 G#5
1:|---------------------------|---------------------------|
2:|--2------------------------|--2------------------------|
3:|--4-----------3------------|--4------------------------|
4:|--4-----------3------------|--4------------------------|
5:|--------------1------------|--------------1------------|
6:|---------------------------|---------------------------|

Asus2 G#5 Asus2 G#5
1:|---------------------------|-------------------2-2-1-1-1-1--|
2:|--2------------------------|--2---2------------2-2-2-2-2-2--|
3:|--4-----------3------------|--4-----------3-----------------|
4:|--4-----------3------------|--4-----------3-----------------|
5:|--------------1------------|--------------1-----------------|
6:|---------------------------|--------------------------------|

Ending:

Asus2
1:|------------------(14)--|
2:|--------2-----2---------|
3:|------------------------|
4:|-----4-----4------------|
5:|--2---------------------|
6:|------------------------|
AH.




Ваше мнение



Капча