Intro/Verse

Eb---------------------------------------------------------------
Bb---------------------------------------------------------------
Gb---------------------------------------------------------------
Db---999999999999---0004/5-5-5/7---777777777777---07777/55/444---
Ab---999999999999---000000000000---555555555555---000000000000---
Db---999999999999---000000000000---555555555555---000000000000---

Eb---------------------------------------------------------------
Bb------------------------------------------------------555555---
Gb------------------------------------------------7-6-7-777777---
Db---999999999999---0004/5-5-5/7---777777777777---0-0-0-000000---
Ab---999999999999---000000000000---555555555555------------------
Db---999999999999---000000000000---555555555555------------------

Fill

Eb------------------|
Bb---------555555---|
Gb---7-6-7-777777/--|-slide into chorus
Db---0-0-0-000000/--|
Ab------------------|
Db------------------|

Chorus

Eb-------------------------------------------------------------------
Bb---1010101010101010/12121212---888888888888---3333333333-2-33333333
Gb---9 9 9 9 9 9 9 9 /11111111---777777777777---2222222222-2-22222222
Db---7 7 7 7 7 7 7 7 /9 9 9 9 ---555555555555---0000000000-0-00000000
Ab---7 7 7 7 7 7 7 7 /9 9 9 9 ---555555555555---0000000000-0-00000000
Db---7 7 7 7 7 7 7 7 /9 9 9 9 ---555555555555---0000000000-0-00000000

Eb------------------------------------------------|
Bb---1010101010101010/12121212---8888888888-------|
Gb---9 9 9 9 9 9 9 9 /11111111---7777777777-7-6---|Back To Verse
Db---7 7 7 7 7 7 7 7 /9 9 9 9 ---5555555555-------| First Time
Ab---7 7 7 7 7 7 7 7 /9 9 9 9 ---5555555555-------|
Db---7 7 7 7 7 7 7 7 /9 9 9 9 ---5555555555-------|

Bridge

Eb-----------------------------------------------------------------
Bb-----------------------------------------------------------------
Gb-----------------------------------------------------------------
Db---9999999999---111111--121212121212---5555555555—--0000000000---
Ab---9999999999---111111--121212121212---5555555555—--0000000000---
Db---9999999999---111111--121212121212---5555555555—--0000000000---

Rad Bit

Eb---------5---------5------------5---------5----------
Bb-----5h7---7---5h7---7p5----5h7---7---5h7---7p5------
Gb---7----------------------7----------------------7---
Db-----------------------------------------------------
Ab-----------------------------------------------------
Db-----------------------------------------------------

End on

Eb-------
Bb---3---
Gb---2---Let it Ring...
Db---0---
Ab---0---
Db---0---

Song Order

Intro x1
Verse x2
Fill x1
Chorus x1 – back to verse
Verse x2
Fill x1
Chorus x2 – on to bridge
Bridge x4
Rad Bit x8
Chorus x2
Ending




Ваше мнение



Капча