Apologetic Theory
Finch
Guitar 1
Tune to C

D||------------------||------------------------------|
A||------------------||------------------------------|
F||------------------||*-----------------------------|
C||------------------||*--0--0--0--0--0-0-0-0-0--0-0-|
G||------------------||---0--0--0--0--0-0-0-0-0--0-0-|
C||------------------||---0--0--0--0--0-0-0-0-0--0-0-|

-------------------------------|-----------------------------|
-------------------------------|-----------------------------|
-------------------------------|-----------------------------|
--9--9-9-9-9-5--5-5-5--5-5-5-5-|--0--0--0--0--0-0-0-0-0--0-0-|
--9--9-9-9-9-5--5-5-5--5-5-5-5-|--0--0--0--0--0-0-0-0-0--0-0-|
--9--9-9-9-9-5--5-5-5--5-5-5-5-|--0--0--0--0--0-0-0-0-0--0-0-|

--------------------------------||------------------------------|
--------------------------------||------------------------------|
-------------------------------*||*-----------------------------|
--9--9-9-9-9-5--5-5-5--5-x-x-x-*||*--x--x-x-x--x-x-x-x-x--9--9--|
--9--9-9-9-9-5--5-5-5--5-x-x-x--||---x--x-x-x--x-x-x-x-x--9--9--|
--9--9-9-9-9-5--5-5-5--5-x-x-x--||---x--x-x-x--x-x-x-x-x--9--9--|

-----------------------------|-----------------------------|
-----------------------------|-----------------------------|
-----------------------------|-----------------------------|
--x--x-x-x--x-x-x-x-x--7--7--|--x--x-x-x--x-x-x-x-x--4--4--|
--x--x-x-x--x-x-x-x-x--7--7--|--x--x-x-x--x-x-x-x-x--4--4--|
--x--x-x-x--x-x-x-x-x--7--7--|--x--x-x-x--x-x-x-x-x--4--4--|
3x
------------------------------||-------------------|-------------------|
------------------------------||-------------------|-------------------|
-----------------------------*||-------------------|-------------------|
--x--x-x-x--x-x-x-x-x--5--5--*||--4----------------|--5----------------|
--x--x-x-x--x-x-x-x-x--5--5---||--4----------------|--5----------------|
--x--x-x-x--x-x-x-x-x--5--5---||--4----------------|--5----------------|

|-----------------------------------|
|-----------------------------------|
|*--7-7-7-7-7-7-7-6-6-6-6-6-4-4-4-4-|
|*--x-x-x-x-x-x-x-x-x-x-x-x-x-x-x-x-|
|---5-5-5-5-5-5-5-4-4-4-4-4-2-2-2-2-|
|-----------------------------------|
3x
-------------------------------------------||------------------------------|
-------------------------------------------||------------------------------|
--11-11-11-11-11-11-11-11-7-7-7-7-7-7-7-7-*||*-----------------------------|
--x--x--x--x--x--x--x--x--x-x-x-x-x-x-x-x-*||*--x--x-x-x--x-x-x-x-x--9--9--|
--9--9--9--9--9--9--9--9--5-5-5-5-5-5-5-5--||---x--x-x-x--x-x-x-x-x--9--9--|
-------------------------------------------||---x--x-x-x--x-x-x-x-x--9--9--|

-----------------------------|-----------------------------|
-----------------------------|-----------------------------|
-----------------------------|-----------------------------|
--x--x-x-x--x-x-x-x-x--7--7--|--x--x-x-x--x-x-x-x-x--4--4--|
--x--x-x-x--x-x-x-x-x--7--7--|--x--x-x-x--x-x-x-x-x--4--4--|
--x--x-x-x--x-x-x-x-x--7--7--|--x--x-x-x--x-x-x-x-x--4--4--|
3x
------------------------------||-------------------|-------------------|
------------------------------||-------------------|-------------------|
-----------------------------*||-------------------|-------------------|
--x--x-x-x--x-x-x-x-x--5--5--*||--4----------------|--5----------------|
--x--x-x-x--x-x-x-x-x--5--5---||--4----------------|--5----------------|
--x--x-x-x--x-x-x-x-x--5--5---||--4----------------|--5----------------|

|-----------------------------------|
|-----------------------------------|
|*--7-7-7-7-7-7-7-6-6-6-6-6-4-4-4-4-|
|*--x-x-x-x-x-x-x-x-x-x-x-x-x-x-x-x-|
|---5-5-5-5-5-5-5-4-4-4-4-4-2-2-2-2-|
|-----------------------------------|
5x
-------------------------------------------||-------------------------------|
-------------------------------------------||-------------------------------|
--11-11-11-11-11-11-11-11-7-7-7-7-7-7-7-7-*||*------------------------------|
--x--x--x--x--x--x--x--x--x-x-x-x-x-x-x-x-*||*--2-2-2-2--4/--5--5-5-5-5-5-5-|
--9--9--9--9--9--9--9--9--5-5-5-5-5-5-5-5--||---2-2-2-2--4/--5--5-5-5-5-5-5-|
-------------------------------------------||---2-2-2-2--4/--5--5-5-5-5-5-5-|

-----------------------------------||-----------------------------------|
-----------------------------------||-----------------------------------|
--7-7-7-7-7-7-7-7-6-6-6-6-6-6-6-6-*||*--7-7-7-7-7-7-7-6-6-6-6-6-4-4-4-4-|
--x-x-x-x-x-x-x-x-x-x-x-x-x-x-x-x-*||*--x-x-x-x-x-x-x-x-x-x-x-x-x-x-x-x-|
--5-5-5-5-5-5-5-5-4-4-4-4-4-4-4-4--||---5-5-5-5-5-5-5-4-4-4-4-4-2-2-2-2-|
-----------------------------------||-----------------------------------|
7x
-------------------------------------------||-------------------||
-------------------------------------------||-------------------||
--11-11-11-11-11-11-11-11-7-7-7-7-7-7-7-7-*||-------------------||
--x--x--x--x--x--x--x--x--x-x-x-x-x-x-x-x-*||--0----------------||
--9--9--9--9--9--9--9--9--5-5-5-5-5-5-5-5--||--0----------------||
-------------------------------------------||--0----------------||

Guitar 2
Tune to C

D||------||------------------------------|-------------------------------|
A||------||------------------------------|-------------------------------|
F||------||*-----------------------------|-------------------------------|
C||------||*--0--0--0--0--0-0-0-0-0--0-0-|--9--9-9-9-9-5--5-5-5--5-5-5-5-|
G||------||---0--0--0--0--0-0-0-0-0--0-0-|--9--9-9-9-9-5--5-5-5--5-5-5-5-|
C||------||---0--0--0--0--0-0-0-0-0--0-0-|--9--9-9-9-9-5--5-5-5--5-5-5-5-|

-----------------------------|--------------------------------||-------|------|
-----------------------------|--------------------------------||-------|------|
-----------------------------|-------------------------------*||*------|------|
--0--0--0--0--0-0-0-0-0--0-0-|--9--9-9-9-9-5--5-5-5--5-x-x-x-*||*------|------|
--0--0--0--0--0-0-0-0-0--0-0-|--9--9-9-9-9-5--5-5-5--5-x-x-x--||-------|------|
--0--0--0--0--0-0-0-0-0--0-0-|--9--9-9-9-9-5--5-5-5--5-x-x-x--||-------|------|
3x
------|-------||-------------------|-------||------------------------------|
------|-------||-------------------|-------||------------------------------|
------|------*||-------------------|-------||*-----------------------------|
------|------*||--4----------------|--5----||*--0--0--0--0--0-0-0-0-0--0-0-|
------|-------||--4----------------|--5----||---0--0--0--0--0-0-0-0-0--0-0-|
------|-------||--4----------------|--5----||---0--0--0--0--0-0-0-0-0--0-0-|
3x 3x
--------------------------------||-------|------|------|-------||
--------------------------------||-------|------|------|-------||
-------------------------------*||*------|------|------|------*||
--9--9-9-9-9-5--5-5-5--5-5-5-5-*||*------|------|------|------*||
--9--9-9-9-9-5--5-5-5--5-5-5-5--||-------|------|------|-------||
--9--9-9-9-9-5--5-5-5--5-5-5-5--||-------|------|------|-------||

-------------------|-------------------||------------------------------|
-------------------|-------------------||------------------------------|
-------------------|-------------------||*-----------------------------|
--4----------------|--5----------------||*--0--0--0--0--0-0-0-0-0--0-0-|
--4----------------|--5----------------||---0--0--0--0--0-0-0-0-0--0-0-|
--4----------------|--5----------------||---0--0--0--0--0-0-0-0-0--0-0-|
5x
--------------------------------||-------------------------------|
--------------------------------||-------------------------------|
-------------------------------*||*------------------------------|
--9--9-9-9-9-5--5-5-5--5-5-5-5-*||*--2-2-2-2--4/--5--5-5-5-5-5-5-|
--9--9-9-9-9-5--5-5-5--5-5-5-5--||---2-2-2-2--4/--5--5-5-5-5-5-5-|
--9--9-9-9-9-5--5-5-5--5-5-5-5--||---2-2-2-2--4/--5--5-5-5-5-5-5-|

-----------------------------------||------------------------------|
-----------------------------------||------------------------------|
----------------------------------*||*-----------------------------|
--5-5-5-5-5-5-5-5-4-4-4-4-4-4-4-4-*||*--0--0--0--0--0-0-0-0-0--0-0-|
--5-5-5-5-5-5-5-5-4-4-4-4-4-4-4-4--||---0--0--0--0--0-0-0-0-0--0-0-|
--5-5-5-5-5-5-5-5-4-4-4-4-4-4-4-4--||---0--0--0--0--0-0-0-0-0--0-0-|
7x
--------------------------------||-------------------||
--------------------------------||-------------------||
-------------------------------*||-------------------||
--9--9-9-9-9-5--5-5-5--5-5-5-5-*||--0----------------||
--9--9-9-9-9-5--5-5-5--5-5-5-5--||--0----------------||
--9--9-9-9-9-5--5-5-5--5-5-5-5--||--0----------------||




Ваше мнение



Капча