Artist: Filter
Song: Where do we go from here
Tuning: Drop D ( from low to high DADGBE )
Tabbed By: Keanan Brackenridge (Xtinction)

Intro/Verse/Chorus
E| -----------------------------------------------
B| -----------------------------------------------
G| -4-4-4-4-4-4-x-7-7-7-7-7-7-7-7-7---------------
D| -4-4-4-4-4-4-x-7-7-7-7-7-7-7-7-7---------------
A| -2-2-2-2-2-2-x-5-5-5-5-5-5-5-5-5---------------
D| -----------------------------------------------

E| -----------------------------------------------
B| -----------------------------------------------
G| -----------------------------------------------
D| -5-5-5-5-5-5-x-2-2-2-2-2-2-2-2-2---------------
A| -5-5-5-5-5-5-x-2-2-2-2-2-2-2-2-2---------------
D| -5-5-5-5-5-5-x-2-2-2-2-2-2-2-2-2---------------

play this pt. at the end of each verse/chorus
E| -----------------------------------------------
B| -----------------------------------------------
G| -4-4-4-4-4-4-x---------------------------------
D| -4-4-4-4-4-4-x-2-2-2-2-2-2-2-2-2---------------
A| -2-2-2-2-2-2-x-2-2-2-2-2-2-2-2-2---------------
D| -------------x-2-2-2-2-2-2-2-2-2---------------

E| -----------------------------------------------
B| -----------------------------------------------
G| -----------------------------------------------
D| -5-5-5-5-5-5-x-0-0-0-0-0-0-0-0-0---------------
A| -5-5-5-5-5-5-x-0-0-0-0-0-0-0-0-0---------------
D| -5-5-5-5-5-5-x-0-0-0-0-0-0-0-0-0---------------

Pre-Chorus/Bridge

E| --------------------------------------------------------
B| --------------------------------------------------------
G| --------------------------------------------------------
D| -x-x-x-x-x-x-0-/-8-8-8-0-0-0-0-10-10-10-10-10-10-10-10--
A| -x-x-x-x-x-x-0-/-8-8-8-0-0-0-0-10-10-10-10-10-10-10-10--
D| -x-x-x-x-x-x-0-/-8-8-8-0-0-0-0-10-10-10-10-10-10-10-10--

E| --------------------------------------------
B| --------------------------------------------
G| --------------------------------------------
D| -0-/-8-8-8-0-0-0-0-10-10-10-10-10-10-10-10--
A| -0-/-8-8-8-0-0-0-0-10-10-10-10-10-10-10-10--
D| -0-/-8-8-8-0-0-0-0-10-10-10-10-10-10-10-10--

E| --------------------------------------------
B| --------------------------------------------
G| --------------------------------------------
D| -0-/-8-8-8-0-0-0-0-10-10-10-10-10-10-10-10--
A| -0-/-8-8-8-0-0-0-0-10-10-10-10-10-10-10-10--
D| -0-/-8-8-8-0-0-0-0-10-10-10-10-10-10-10-10--

E| --------------------------------------------
B| --------------------------------------------
G| --------------------------------------------
D| -0-/-8-8-8-0-0-0-0-10-10-10-10-10-10-10-10--
A| -0-/-8-8-8-0-0-0-0-10-10-10-10-10-10-10-10--
D| -0-/-8-8-8-0-0-0-0-10-10-10-10-10-10-10-10--

thats all of the song
in the verse pt., you use an acoustic guitar
and in the chorus and pre-chorus pts. you use an electric guitar




Ваше мнение



Капча