#----------------------------------PLEASE NOTE--------------------------------#
#This file is the author's own work and represents their interpretation of the#
#song. You may only use this file for private study, scholarship, or research.#
#-----------------------------------------------------------------------------#
WELCOME TO THE FOLD - Filter
Album: Title of Record
This song was tabbed by: Chris Williams.
Here's what I could get, stright from a video lesson with Filter's guitarist.
I'll let you put the parts together.
TUNING: Drop A (drop you low E to an A, one octave below your A string)
Verses:
-------
Either Guitar 1 or 2: (heavy distortion)
e:----------------------------------------------------------------
B:----------------------------------------------------------------
G:----------------------------------------------------------------
D:--3/5--5--5--3---0-3/5--5--5--3---0-3/5--5--5--3---0-3/5--5--8--
A:--3/5--5--5--3---0-3/5--5--5--3---0-3/5--5--5--3---0-3/5--5--8--
A:--3/5--5--5--3---0-3/5--5--5--3---0-3/5--5--5--3---0-3/5--5--8--
(hold)
e:----------------------------------------------------------------
B:----------------------------------------------------------------
G:----------------------------------------------------------------
D:--3/5--5--5--3---0-3/5--5--5--3---0-3/5--5--5--3---0-3-0-3-0-3--
A:--3/5--5--5--3---0-3/5--5--5--3---0-3/5--5--5--3---0-3-0-3-0-3--
A:--3/5--5--5--3---0-3/5--5--5--3---0-3/5--5--5--3---0-3-0-3-0-3--
For verses keep alternating between riffs
Chorus:
-------
Guitar 1: (heavy distortion)
e:-------------------------
B:-------------------------
G:--7------5------10-----12
D:--7------5------10-----12
A:--5------3------8------10
A:--5------3------8------10
(hold each chord)
A 2nd Guitar plays octaves with a wah pedal:
v v ^ v v ^ v v ^ v
e:---------------------------------------------
B:---------------------------------------------
G:-11---11-11--11---11-11--11---11-11--11/12---
D:-x ---x -x --x ---x -x --x ---x -x --x /x ---
A:-9 ---9 -9 --9 ---9 -9 --9 ---9 -9 --9 /10---
A:-9 ---9 -9 --9 ---9 -9 --9 ---9 -9 --9 /10---
v v ^ v v ^ v v ^ v
e:--------------------------------------------
B:--------------------------------------------
G:-12---12-12--12---12-12--12---12-12--12/14--
D:-x ---x -x --x ---x -x --x ---x -x --x /x --
A:-10---10-10--10---10-10--10---10-10--10/12--
A:-10---10-10--10---10-10--10---10-10--10/12--
v v ^ v v ^ v v ^ v
e:--------------------------------------------
B:--------------------------------------------
G:-14---14-14--14---14-14--14---14-14--14/12--
D:-x ---x -x --x ---x -x --x ---x -x --x /x --
A:-12---12-12--12---12-12--12---12-12--12/10--
A:-12---12-12--12---12-12--12---12-12--12/10--
v v ^ v v ^ v v ^ v
e:--------------------------------------------
B:--------------------------------------------
G:-12---12-12--12---12-12--12---12-12--12/11--
D:-x ---x -x --x ---x -x --x ---x -x --x /x --
A:-10---10-10--10---10-10--10---10-10--10/9 --
A:-10---10-10--10---10-10--10---10-10--10/9 --
v v ^ v v ^ v v ^ v
e:---------------------------------------------
B:---------------------------------------------
G:-11---11-11--11---11-11--11---11-11--11/12---
D:-x ---x -x --x ---x -x --x ---x -x --x /x ---
A:-9 ---9 -9 --9 ---9 -9 --9 ---9 -9 --9 /10---
A:-9 ---9 -9 --9 ---9 -9 --9 ---9 -9 --9 /10---
v
e:--------
B:--------
G:-12/14--
D:-x /x --
A:-10/12--
A:-10/12--
Fill:
-------
Guitar 2 w/ distortion, wah
e|:------------||----------|
B|:------7-----||----------|
G|:--5/7----5--||---5~~----|
D|:------------||----------|
A|:------------||----------|
A|:------------||----------|
x3 (hit after 3rd time)
Solo:
------
First part is A pentatonic in 17th, 18th and 19th frets
e|---19-17----19-17----19-17----19-17----19^--
b|---------18-------18-------18-------18------
g|--------------------------------------------
d|--------------------------------------------
a|--------------------------------------------
E|--------------------------------------------
e|---8--7--5-----5-----------5^----------
b|------------8-----8--6--5--------8-----
g|------------------------------------7--
d|---------------------------------------
a|---------------------------------------
E|---------------------------------------
e|------------------------------------
b|------------------------------------
g|------------------------------------
d|---3-2-3-5-3-3-3-2-3-5-3-2-3/5-5-5--
a|------------------------------------
E|------------------------------------
e|---------------------------------
b|---------------------------------
g|---------------------------------
d|---0--2--3--5--2--3--------------
a|--------------------0--1--3---2--
E|---------------------------------
e|-----------------7-8---8-10---8-10----
b|-----5-6-5-6-8-8-----8------8------8--
g|---7----------------------------------
d|--------------------------------------
a|--------------------------------------
E|--------------------------------------
e|---13----13----13---15^15--13--
b|-------------------------------
g|-------------------------------
d|-------------------------------
a|-------------------------------
E|-------------------------------
e|-------------------------------------
b|---------12----------12----------12--
g|---10/12----12-10/12----12-10/12-----
d|-------------------------------------
a|-------------------------------------
E|-------------------------------------
e|----------------------------
b|---------12-----------------
g|---10/12----12-12-10----7--
d|----------------------------
a|----------------------------
E|----------------------------
Near the end of the song he plays another set of octaves, starting at A on the 12 and 14th frets and he goes down to G, F#, and then C. Comes back up to a higher C, proceeds down again.
email suggestion or comments to: [email protected]


[email protected]---------------




Ваше мнение



Капча