Song: (Can't You) Trip Like I do
Band: Filter
Album: The Spawn Soundtrack
Tabbed By: Maximum Guitar, November 1997

TRIP LIKE I DO

Tune down 1/2 step (Low to high:Eb Ab Db Gb)

---------------------------------------------------------------------------------
---------------------------------------------------------------------------------
-7-----7-------7-----10----------7------7------7----------7-----7----------------
---0-0----0-0----0-0-----0-0-0------0-0----0-0----0-0-0------0-----0-0-----------

--------------------------------------------------------------------------------------------------
--------------------------------------------------------------------------------------------------
---7-----7-----10------7-----7--------7------7-----7-------7------7-------7------7---7-10---------
------0-----0------0------0-----0--------0------0------0-------0-----0-0-----0-0---0-------0-0-0--

Chorus
-------------------|--------------------------------------------------------------------------------
-------------------|-----10----------------7--------------------------------------------------------
--7-----7-----7----|------------------------------------------------7-7----7--------------7---------
-----0-----0-----0-|--8-------8--8-(8)-5-----5-5---5--5s0--0--0-0-------0---0-0-0---0--0-----0--0--

---------------------------------------------------|---------------------------------------------
---------------------------------------------------|---------------------------------------------
--------7---------7-7-7-7-7-7-7-7-7-7-7-7-7-7-7-7--|---7-7-7-7-7-7-7-7-7-7-7-7-7-7---------7-7---
--0-0-0---0-0-0------------------------------------|--------------------------------0-0-0--------

Out-chorus
---------------------|-----------------------------------------------------------------------------
---------------------|----------10-----------10-10--------7----------7----------------------------
---------7-7---------|---------------------------------------------------------------7-7-----------
-0--0-0------0--0-0--|--8--8-8-----8--8-8-8---------5--5-5---5--5-5-5---5----0--0-0------0--0-0-0-

-------------------------------------------------------------------------------------------
-------------------------------------------------------------------------------------------
----------7-7----------------7----------7------------7--------------7--7-7-----------------
---0--0-0-----0--0-0-0---0-0-----0---0-------0-0-0-0---0-0-0-0-0-0----------0----------0---




Ваше мнение



Капча