Filter
Skinny
Title of Record
Tabbed By kyle hayes

Intro
E---------------------------------
B---10h12-------------------------
G---------12-11-11-11-11h12-9-----
D----------------------------12-10
A-0-------------------------------
E---------------------------------

Verse
E---------------------------
B---------------------------
G--9-9-9-9-12-12-11-7-9-9--- Repeat this for awhile
D---------------------------
A--7-7-7-7-10-10--9-5-7-7---
E---------------------------

Chorus
C B A
E---------------------
B---------------------
G---------------------
D---------------------
A-10---9---7----------
E-8----7---5----------

Repeat the verses and chorus throughout the whole song.
If you got any questions or comments email me at [email protected]




Ваше мнение



Капча