Author/Artist: Filter
Title: It's Over
Album: Short Bus
Transcribed by: Mike
Drop D Tuning
These are the Riffs, hope they are right
I'm not really sure how many times he hits each chord
------------------------------------------------------------------------------
------------------------------------------------------------------------------
------------------------------------------------------------------------------
------------------------------------------------------------------------------
--9-9-9-9-9-9-9-9-9-9-9\8-8-8-8-----------------------------------------------
--9-9-9-9-9-9-9-9-9-9-9\8-8-8-8-----------------------------------------------
Play this chord a ton
------------------------------------------------------------------------------
------------------------------------------------------------------------------
------------------------------------------------------------------------------
--------------2-2-2-2-2-2-----------------------------------------------------
--2-2-2-2-2-2-0-0-0-0-0-0-5-5-5-5-5-5-7-7-7-7-7-7-----------------------------
--2-2-2-2-2-2-0-0-0-0-0-0-5-5-5-5-5-5-7-7-7-7-7-7-----------------------------
------------------------------------------------------------------------------
------------------------------------------------------------------------------
------------------------------------------------------------------------------
------------------------------------------------------------------------------
--2-2-2-2-2-2-0--0-5-5-5-5-5-5-7-7-7-7-7-7------------------------------------
--2-2-2-2-2-2-0--0-5-5-5-5-5-5-7-7-7-7-7-7------------------------------------




Ваше мнение



Капча