-------------------------------------------------------------------------------
God-damn Me - Filter
-------------------------------------------------------------------------------
Tabbed by: Geno
Email: [email protected]
Tuning: DADGBe (dropped D)
Every tab of this song I’ve seen is bad wrong. They all show the chorus in
octaves, and that is correct, the thing wrong with it is that they are on the
wrong string so the low D string doesn’t ring properly. Nor do they show any of
the electric parts. Here is the real deal: (strumming not shown)
Gtr. 1 (acoustic doubled throughout) Verse
e|---------------------------------------------------------------------------|
B|---------------------------------------------------------------------------|
G|-x-4-4-4-7-4-4-4-4-7-9-11--------------------------------------------------|
D|-x-x-0-x-x-0-x-0-x-x-x-x---------------------------------------------------|
A|-x-2-0-2-5-0-2-0-2-5-7-9---------------------------------------------------|
D|-x-0-0-0-0-0-0-0-0-0-0-0---------------------------------------------------|
Gtr 2 (electric doubled and distorted throughout) Verse
e|---------------------------------------------------------------------------|
B|---------------------------------------------------------------------------|
G|---------------------------------------------------------------------------|
D|---------------------------------------------------------------------------|
A|---2-0-2-5-2-2-0-2-5-7-9---------------------------------------------------|
D|---0-0-0-0-0-0-0-0-0-0-0---------------------------------------------------|
PM……………………………………………………………………|
Gtr. 1 Chorus:
e|---------------------|
B|-------------------*-|
G|-9/11-6/7-7----------|
D|-x-x--x-x-7----------|
A|-7/9—-4/5-5--------*-|
D|-0/0—-0/0-0----------|
Gtr. 2 Chorus:
e|-------------|
B|-----------*-|
G|--7-----7----|
D|--7-----7----|
A|--5-----5--*-|
D|--5-----0----|
Gtr. 1 and 2 tacet
Gtr. 3 Interlude (clean)
e|---------------------------------------------------------------------------|
B|---------------------------------------------------------------------------|
G|--11b12r11--------11b12r11-6-7-9-11-11-------------------------------------|
D|-----------7-9-9-----------x-x-x-x--x--------------------------------------|
A|---------------------------4-5-7-9--9--------------------------------------|
D|---------------------------------------------------------------------------|
Repeat the verse and chorus thing.
Gtr. 1 Bridge:
e|--------------------------------|
B|--------------------------------|
G|-4--7--4--7--4--7--4--7--12-11--|
D|-4--7--4--7--4--7--4--7--12-x---|
A|-2--5--2--5--2--5--2--5--10-9---|
D|-2--5--2--5--2--5--2--5--10-0---|
If you’ll notice, the final chorus changes. The acoustics do a really nice
chord, which the distorted guitars fade out to. There is actually a little more
from the acoustics in the fade that is created by another acoustic that is added
to the mix, but I’m not going to tab that out, because if you do it live, you
won’t need it anyway.
Gtr. 1 Outro
e|---------------------------------------------------------------------------|
B|---------------------------------------------------------------------------|
G|-9/11-6/7-7----------------------------------------------------------------|
D|-7/9--x-x-7----------------------------------------------------------------|
A|-7/9—-4/5-5----------------------------------------------------------------|
D|-0/0—-0/0-0----------------------------------------------------------------|
| / slide up
| slide down
| h hammer-on
| p pull-off
| ~ vibrato
| + harmonic
| x Mute note
| b Bend
| r Return bend to original note
===============================================================================




Ваше мнение



Капча