From [email protected] Fri Apr 18 10:40:51 1997
Date: Thu, 17 Apr 1997 14:44:13 -0500
From: Doug Allen
To: [email protected]
Subject: Filter guitar tab for the song "DOSE" off the Short Bus album

Song: Dose
Artist: Filter
Album: Short Bus DOSE

tabbed by Ross Allen

2 Guitars, the lead is tunned normally, and the rythem is tunned
(D A D G B E) Both with heavy distortion

it starts out like this then the lead comes in like this
D---------xx----xx------- E ----19------- 19-------------
A-----xxxx--xxxx--------- B---------20~~------20---------
D-xx--------------------- G------------------------------

then the rythem comes in strong
D--0-0-0-0-2-2-2-2-2-2-2-2--0-0-0-0-2-2-2-2-2-2-2-2-----
A--0-0-0-0-2-2-2-2-2-2-2-2--0-0-0-0-2-2-2-2-2-2-2-2-----
D-------------------------------------------------------
in the album a third guitar dubs over the above

then the drums come in "I beleive in something else"
D---------------------------- D-------0--------------0----
A-0-0-6-5-4-3-0-6-5-4-3-0---- A-0---3-----------0--3------
D-0-0-6-5-4-3-0-6-5-4-3-0---- D-0-------xxxxxxx-0---------

chorus
D-----------------------------------------------------
A-10-12-12-12-12-12-12-15-12-10-10-12-/-0-3-0-3-0-3-3- repeat once more
D-10-12-12-12-12-12-12-15-12-10-10-12-/-0-3-0-3-0-3-3-

D---------------------------------------------------------------------
A-10-10-10-10-10-10-10-10-7-7-7-7-7-7-6-5-3-0-3-0-6-5-3-0-3-0---------
D-10-10-10-10-10-10-10-10-7-7-7-7-7-7-6-5-3-0-3-0-6-5-3-0-3-0---------

after the chorus is played the second time play this
-------------------------------x----x-------------
----------------------------x-----x---xx----------
--------------------------x-------------xx-------- repeat
-10-10-10-10-10-10-10-10--------------------------
-10-10-10-10-10-10-10-10--------------------------

"can your preacher"
D--------------------------------------------------
A-0-0-0-0-2-2-2-2-2-2-2-2-0-0-0-0-2-2-2-2-2-2-2----
D-0-0-0-0-2-2-2-2-2-2-2-2-0-0-0-0-2-2-2-2-2-2-2----




Ваше мнение



Капча