-##
FIELDS OF THE NEPHILIM - "Preacher Man"
Comments, corrections etc. welcome.
Par Svensson, [email protected]
Riff #0:
D 0---------0---------0-------0------0-----0-----0---0--00..000---
A --------------------------------------------------------------3-
Riff #1:
e ---------------------------------
B ---------------------------------
G ---2---------------2-------------
D -0---0-3r2r0---0-0---0--3r2r0----
A -------------3----------------3--
E ---------------------------------
Riff #2:
e ------------------
B ------------------
G ------------------
D ------------------
A -0-3r0-5r0-0-2h3--
E ------------------
Riff #3:
e --------------------------------------
B --------------------------------------
G -----------------------------------0--
D -2-2-2r0---2-2-2r0---2-2-2r0---2------
A ---------2---------2---------2---2----
E --------------------------------------
Riff #4:
e ----------------
B ---------0-0----
G -----0h2-----0--
D -2-2------------
A ----------------
E ----------------
Riff #5:
e --------------------------------------3--
B -5-5-5r3r0--5-5-5r3r0--5-5-5r3r0--5r0----
G -----------------------------------------
D -----------------------------------------
A -----------------------------------------
E -----------------------------------------
Riff #6:
e ---1--0----------------
B ----------3---1---0----
G ----2---2---2---2---2--
D -0---------------------
A -----------------------
E -----------------------
Riff #7:
e ------------------------------
B --------------1--1-0h1r0------
G ----------0h2------------0h2--
D ------0h2---------------------
A -0--3-------------------------
E ------------------------------
Riff #8:
e -15----14---12--------------
B ----12----12---15-12-14-12--
G ----------------------------
D ----------------------------
A ----------------------------
E ----------------------------

Well he talks in confusion
And he faults your point of view
You talk about his operation
And he talks, hear him laughing at you
Contamination and radiation
Let it crawl, wanna see you stalemate
Can't turn to blink or think for a while
Now you're melting through your burning feet
#5(x2)
All the people say "Ohh..."
Stop!
He talks, clearly starts to open
A thousand fingers reach out for you
We don't feel no contamination (x4)
Ohhh...

Oh, keep talking, you're a hunter, I'm a wolf
Yeah, keep talking, I'm the preacher, you're the fool!
Contamination and radiation
Let it crawl, wanna see you stalemate
Can't turn to blame or think for a while
Now you're melting through your burning feet
#5(x4)
Thought I'd hear you say "Ohh..."

We don't feel no contamination (x4)
We don't feel no contamination (x4)
Radiation, Contamination (x3)
Radiation.

As usual, it's quite hard to distinguish which one is guitar one, two or the
bass. The above sounds pretty good when playing along to the record, though.
When no number of times a riff should be played, is stated, simply repeat
it until you bump into another one, and start playing that.
Riff #3 actually should be: D:--2-2-2-2-2-2-2-2-2-2-2-2... played with
the string "half-muted", but that's not very exciting, is it?
I took the liberty of changing John's (McDonagh) lyrics transcription in a few
places, thereby not claiming my interpretation is correct.
Finally, anybody recognise riff #8 from somewhere else? :-)




Ваше мнение



Капча