-##
From: [email protected]
I should warn you that the rhythm isn't quite right on this, but this
should get you a close enough feel for the song to be able to play along
with the CD and work out the rhythm.
Phobia
Fields of the Nephilim
Riff 1:
A
e|---0--------------0----------------------------------------------------------
B|---2--------------2----------------------------------------------------------
G|---2--------------2----------------------------------------------------------
D|---2--2-1--0------2--2-1-0---0-----------------------------------------------
A|-0-----------3--0----------3-------------------------------------------------
E|-----------------------------------------------------------------------------
Riff 2:
F F E F E F F F E F E F
e|-1-1-0-1--0-1--1-1-0-1--0-1--------------------------------------------------
B|-1-1-0-1--0-1--1-1-0-1--0-1--------------------------------------------------
G|-2-2-1-2--1-2--2-2-1-2--1-2--------------------------------------------------
D|-3-3-2-3--2-3--3-3-2-3--2-3--------------------------------------------------
A|-3-3-2-3--2-3--3-3-2-3--2-3--------------------------------------------------
E|-1-1-0-1--0-1--1-1-0-1--0-1--------------------------------------------------
Riff 3:
D
e|---2--------------2----------------------------------------------------------
B|---3--------------3----------------------------------------------------------
G|---2--2-1--0------2--2-1--0--------------------------------------------------
D|-0-----------3--0-----------3------------------------------------------------
A|-----------------------------------------------------------------------------
E|-----------------------------------------------------------------------------
So it goes kinda like:
Riff 1 (several times), Riff 2, Riff 3, Riff 2, Riff 3
Riff 1
It drains all of my life force
Riff 1
A body like a unicorn, it's a phobia
Riff 3 Riff 1
In this crowded room the people just stare
Riff 2
Descend my soul (or whatever)...
Riff 3
Riff 2
Descand my soul, etc...
I think you get the idea. Two notes: first, I'm doing this completely by
memory since I currently have access to either my guitar nor the CD at the
moment; secondly, the bass does NOT appear to follow the guitar. I've not
quite figured out the bass yet, though, but there appear to be some
counterpoint involved.
--the Dragon




Ваше мнение



Капча