-##
From [email protected] Tue Nov 30 07:48:29 1993
Delivery-Date: Tue, 30 Nov 1993 07:48:37 +0000
Return-Path: [email protected]
Received: from eliz.cs.tcd.ie by unix2.tcd.ie (5.65/TCD/1.36)
id AA26477; Tue, 30 Nov 93 07:48:29 GMT
X400-Received: by mta eliz.cs.tcd.ie in /PRMD=NRN/ADMD=Eirmail400/C=IE/;
Relayed; Tue, 30 Nov 1993 07:48:22 +0000
X400-Received: by /PRMD=nrn/ADMD=eirmail400/C=ie/; Relayed;
Tue, 30 Nov 1993 07:47:17 +0000
X400-Received: by /PRMD=iris/ADMD=mensatex/C=es/; Relayed;
Tue, 30 Nov 1993 06:48:52 +0000
Date: Tue, 30 Nov 1993 06:48:52 +0000
X400-Originator: [email protected]
X400-Recipients: [email protected]
X400-Mts-Identifier: [/PRMD=iris/ADMD=mensatex/C=es/;931130084852]
X400-Content-Type: P2-1984 (2)
Content-Identifier: 805
Conversion: Prohibited
From: oSKaR
Message-Id:
To: mcdonghj (IPM Return Requested)
Subject: GT Chord of Souls by the Nephilim
Status: RO
Hello John, here is Chord of Souls
As usual is just a rough version of the song (Less rough than usual)
I dont claim anything here to be correct
Additions and corrections welcome, etc...
Second guitar is very difficult to hear on the record, mainly because
plays with lots of distorsion, so please forgive any obvious mistake
BTW could anyone send my the lyrics for the Chord of Souls Extended
Version (is on some boots)??
Want somebody to add the bass line? :)
----
Chord of Souls
--------------
McCoy/Yates/Wrigth/Pettitt/Wrigth

Main Riff:
|-----------------------------|
|-----------------------------|
|----5p4-0-2---5p4-0-0-2-0h2--|
|-----------------------------|
|--0--------------------------|
|-----------------------------|
Intro Main Riff x 4
Then the second guitar enters with an A5 chord (X022XX)
During the lyrics keep playing:
|-----------------------------|
Guitar1|-----------------------------|
|----5p4-0-2---5p4-0-0-2-0h2--|
|-----------------------------|
|--0--------------------------| < let this string ringing
|-----------------------------|
|-----------------------------|
Guitar2|-----------------------------|
|--2--------------------------| < let this two strings ringing
|--2--------------------------| < (full distortion)
|--0---------------3p0-0-3p0--|
|-----------------------------|
A5
"The Preacher Says...
Then the power chord seems to change to (0022XX) during the first :
"Let it be the End"
On the chorus:
|------------------------|
Guitar1|------------------------|
|----7-7-5-5p4----0------|
|--0---------------------| < let this ring
|------------------------|
|------------------------|
|------------------------|
Guitar2|--3-3-3-----------------|
|--2---------2p1p0-------|
|-----------------3p2p0--|
|------------------------|
|------------------------|
D5
Eyes! (x 4)
Ending chorus with one guitar playing:
|--3--3--3---|
|---1--1--1--|
|----0--0----|
|------------|
|------------|
|------------|
Also near the end the second guitar plays (while the first keeps
playing the main riff) :
|--------------------|
|--------------------|
|--------------------|
|--0--3--5--5--3--0--| Difficult uh?, full distortion
|--------------------| It seems to sound like if they were harmonics..?
|--------------------|
And finally the end, believers : :>
|--8b-8p7--8-7------------0----------|
|--------8----8-7----1--3----3-1-0---|
|------------------2--2--2--2-2-2----|
|------------------------------------|
|------------------------------------| (x 4)
|------------------------------------|
And repeat :
|---------0----------|
|----1--3----3-1-0---|
|--2--2--2--2-2-2----|
|--------------------|
|--------------------| Till the end
|--------------------|
Lyrics:
The Preacher says to all his men: I hear Godly laughter
Can it be the end?
With eyes on fire, couldn't be so cold
I hear Godly laughter, let it be the end
Let it be the end
Well I hate your conscience, Let's skip this world
I hate your Gods people who breath on earth
Over to the other side, I'm caught stepping out
Over to the other side, Save your brothers now
Let
Eyes, eyes, eyes, eyes {Possibly: Ice!}
Honest men, These worthy men
In all my dreams, I hear Godly laughter
Unleash your souls, The Faceless knows
I'm disclosed, It's not the God I'm after
Let it be the end, let it be the end
Let it be the end believe us Chord of Souls
Let it be the end, let it be the end
Let it be the end between us Chord of Souls
Eyes, eyes, eyes, eyes
And I hate your country, And I hate your world
I hate your Gods people who breath on earth
Over to the other side, I'm caught stepping out
Over to the other side
I'm gonna recreate a religious experience to tear my fucking heart out
The End!- Believe us
Let it be the end
May the End believe us
Lord of Souls
May the End believe us
Let it be the end, let it be the end between us chord of souls
Let it end, let it end, let it end
Eyes, eyes
---
Song by McCoy/Yates/Wigth/Pettit/Wrigth
Lyrics transcribed by John McDonagh ([email protected])
TABs by oSKaR LM ([email protected])
[email protected]
?Querras Tu rectificar las lineas de mis Manos?


Ваше мнение



Капча