3 |---2-1---3-2---2-1---0-----+- /
4 |-0-----0-----0-----0---3-2-+- / Verse 1 (2 times)
5 |---------------------------3- /

4 |---2-1---3-2---2-1---0-----+- /
5 |-0-----0-----0-----0---3-2-+- / Verse 2 (2 times)
6 |---------------------------3- /

4 |---------------0---1-0- /
5 |---2-1---4-3-----4---+- / Verse 3 (1 time)
6 |-0-----0-----3-------+- /

у я подобрал из DOOM II, EРISODE 16.

1 ---------------------------------------------------------------------
2 ---------------------------------------------------------------------
3 -----6-5---7--6----6-5---4-2-1---------------------------------------
4 ---4-----4-------4-----4-------2----7-6---8--7----7-6---5-3-2--------
5 ----------------------------------5-----5-------5-----5-------3------
6 ---------------------------------------------------------------------




Ваше мнение



Капча